>
 >
In Another Life

In Another Life Chords

Madina Lake - In Another Life chords, tabs, tablatures, lyrics

Guitar lessons | Add/correct | Request | Top 50 tabs Artists:  A B C D E F G H I J K L M N O P Q R S T U V W X Y Z 0-9

In Another Life Chords – Madina Lake

CD, Sheet music, Poster

Do you like In Another Life? Share with your friends now
ChordsTabsUkulele
Madina Lake
2007

Key: A

Tuning: Standard EADGBe

Chords used:
F#m -  244222
A -    x02220
F -    133211
D -    xx0232
E -    022100
E/G# - 476xxx


Intro: E


Verse 1:
F#m          A
  I remember our first kiss
    F
The butterflies
I know you felt them too
F#m           A
  I can still taste your lips
     F
That night I wrapped
up all my love in you
F#m                 A
  But deep inside I always knew
    F
The sadness around
you was deadly
F#m      A
  I must hate myself
        F
Cause I also knew one
day you'll destroy me


Chorus 1:
D
  But there's something
            A
I've got to know
   E/G#            D
(Before we say goodbye)
                     A
Will I ever see you again
           E/G#       D(hold)
(Somewhere in another life)


Verse 2:
F#m          A
  I remember our first fight
      F
Your skeletons were all up over you
F#m           A
  I can still taste that night
         F
When you told me you'd
been beat up and abused
F#m             A
  You'd hide it all
                     F
Bruised mouths don't talk


Growl:
It's not your fault
It was never your fault

F#m            A
  It's an evil world for
            F
an innocent girl


Growl:
It's not your fault
It was never your fault


(Repeat Chorus 1)


Chorus 2:
D                         A
  I'm going to try to be okay
       E/G#        D
(But I need you to know)
                 A
Wherever you are now
      E/G#            D(hold)
(That here you were adored)


Piano:
e|-17-16----------|-17-16-------------------|
B|-------17-------|-------17-------------14-|
G|----------18----|----------18-16-14-16----|
D|-------------16-|-------------------------|
A|----------------|-------------------------|
E|----------------|-------------------------|
        x2


Bridge:
D(hold)
  You were always great
at running away
    F#m(hold)
But you said forever
    A
You promised forever
D(hold)
  I forgive you
I've forgiven you
F#m(hold)
  And now I just miss you
     A
I'll always remember you
Bass line
Go!

Bass Line:
G|-2-1-0-------|
D|-------2-0-0-|
A|-------------|
E|-------------|


Interlude: D--F#m-A-D--E

Guitar 2:
         D              F#m        A
e|-9-9-9--7-9-10-9-|-12-12-12-|-16-17-12-|
B|-----------------|----------|----------|
G|-----------------|----------|----------|
D|-----------------|----------|----------|
A|-----------------|----------|----------|
E|-----------------|----------|----------|

         D              E
e|-9-9-9--7-9-10-9-|-12-12-12-|-16-17-19-|
B|-----------------|----------|----------|
G|-----------------|----------|----------|
D|-----------------|----------|----------|
A|-----------------|----------|----------|
E|-----------------|----------|----------|


Oh sleep in peace


(Repeat chorus 1 and Chorus 2)





Comments


Popular Madina Lake tabs & chords
Imagineer Bass Tabs
Legends Bass Tabs
Never Take Us Alive Bass Tabs
Never Take Us Alive 1 Bass Tabs
Adalia 2 Chords
Here I Stand Chords
Pandora 2 Chords
Pandora 3 Chords
Statistics Chords
Pandora 1 Tabs


Song lyrics



↑ Back to top | Tablatures and chords are parodies/interpretations of the original songs. You may use it for private study, scholarship, research or language learning purposes only
© 2014 AZChords.com Contact us | Privacy policy | DMCA | Add/correct tabs | Request tabs | Top 50 tabs