» » »

Adalia Tabs (ver.1)

Artists:  A B C D E F G H I J K L M N O P Q R S T U V W X Y Z # 

Adalia Tabs (ver.1)

Madina Lake
Rating:
4/5 (4 votes)

Hard to play? Try these video lessons and learn fast.
                Hey all, this is my favourite song on Madina Lake's album "From them, through us, to
so i thought i would give it a go at tabbing it down for others who want to play it, it
around about right, any corrections however wouldn't go amiss =P (especially for the bit 
verse 2 i couldn't tab), anyways enjoy! (p.s you'll have to listen to the song and play
to be able to learn this easily, and use the lyrics with the tabs to understand bits my 
titles)

Madina Lake use drop D, and drop C tunings in their songs. I tabbed this out in drop D,
could if you want re-tab it to drop C.


INTRO:
                    x3
e|--------------------|----------------------------|
B|--------------------|----------------------------|
G|--7\8-8-8--8-8-8----|---8\10-10-10-8-8-----------|
D|--7\8-8-8--8-8-8----|---8\10-10-10-8-8-----------|
A|--5\6-6-6--6-6-6----|---6\8--8--8--6-6-----------|
D|--------------------|----------------------------|

VERSE 1:
                    x3
e|--------------------|----------------------------|
B|--------------------|----------------------------|
G|--7\8-8-8--8-8-8----|---7/8-8-8--10-10-----------|  repeat all x3
D|--7\8-8-8--8-8-8----|---7/8-8-8--10-10-----------|
A|--5\6-6-6--6-6-6----|---5/6-6-6--8--8------------|
D|--------------------|----------------------------|


PIANO LINK:

e|--------------------------|
B|--------------------------|
G|--------------------------|
D|---------NO-GUITAR--------|
A|--------------------------|
D|--------------------------|


SCREAM BIT:

e|--------------------------|
B|--------------------------|
G|---8-8-8-----8-8-8--------|
D|---8-8-8-----8-8-8--------|
A|---6-6-6-----6-6-6--------|
D|--------------------------|


VERSE 2:
                    x3
e|--------------------|----------------------------|
B|--------------------|----------------------------|
G|--7\8-8-8--8-8-8----|---7/8-8-8--10-10-----------|  repeat all x2
D|--7\8-8-8--8-8-8----|---7/8-8-8--10-10-----------|
A|--5\6-6-6--6-6-6----|---5/6-6-6--8--8------------|
D|--------------------|----------------------------|

e|-------------------------------------------------------------------|
B|-------------------------------------------------------------------|
G|---this part has a different guitar part possibly a solo, which is-|
D|----------hard to hear, however you can get away with--------------|
A|-------playing the riff above till the piano link------------------|
D|-------------------------------------------------------------------|


PIANO LINK:

e|--------------------------|
B|--------------------------|
G|--------------------------|
D|---------NO-GUITAR--------|
A|--------------------------|
D|--------------------------|


BIT AFTER PIANO LINK:

e|-----------------------------------------------|
B|-----------------------------------------------|
G|---8-8-8------10-10-10-----7-7-7------8-8-8----|
D|---8-8-8------10-10-10-----7-7-7------8-8-8----|
A|---6-6-6------8--8--8------5-5-5------6-6-6----|
D|-----------------------------------------------|

BRIDGE AND VERSE 3:

e|---------------------------------------|
B|---------------------------------------|
G|-----------7-7-7-7-----------7-7-7-7---| play this x9, the vocals (verse 3)
D|---1-1-1-/-8-8-8-8---3-3-3-/-8-8-8-8---| kick in after the 2nd time.
A|---1-1-1-/-6-6-6-6---3-3-3-/-6-6-6-6---|
D|---1-1-1-/-----------3-3-3-/-----------|


ENDING:

e|------|
B|------|
G|------|
D|--1~--|
A|--1~--|
D|--1~--|

Lyrics:

verse 1:
She wraps her tragic moments tightly around her neck
Then she hangs herself with them as I try to disconnect
Cuz she wants to choke on her life again
Breathing it in like a deadly poison.

piano link:
She cries cause she's lost and she doesn't even know what she wants
Her eyes grow cold and she begs the world to just let her go

scream bit:
(But I won't let go)

verse 2:
She lives and breathes in a world that brought her to her knees
And now I'm addicted to her cuz that girl is just like me
And I'm gonna choke on her life again
I'm breathing it in like a deadly poison.
I just want to get through to her,
Before her last breath.

piano link:
She cries cause she's lost and she doesn't even know what she wants
Her eyes grow cold and she begs the world to just let her go

bridge:

verse 3:
She cries cause she's lost and she doesn't even know what she wants
And she hides all alone inside the pain that she wont let go
Watching her life pass her by, watching it all through her watering eyes
But I'll be chasing dragonflies from her darkest skies until the day she dies.
            
Hard to play? Try these video lessons and learn fast. | Correct




comments powered by Disqus
↑ Back to top | Tablatures and chords are parodies/interpretations of the original songs. You may use it for private study, scholarship, research or language learning purposes only