» » »

Madina Lake, Adalia Bass tabs (ver.1)

Artists:  A B C D E F G H I J K L M N O P Q R S T U V W X Y Z # 

Adalia Bass tabs (ver.1)

Madina Lake Tabs
 Rating:
4/5 (7 votes)
Adalia lessons Tabs too difficult? Try these video lessons and learn fast
                Intro

F|-----------------------------------------|
C|-----------------------------------------|
G|-----------------------------------------|
C|8-8-8--88-0-0-0--00-8-8-8--88-3-3--5-3-5-|


Verse

F|-----------------------------------------|
C|-----------------------------------------|
G|-----------------------------------------|
C|8-8-8--88-0-0-0--00-8-8-8--88-3-3--5-3-5-|

F|-----------------------------------------|
C|-----------------------------------------|
G|-----------------------------------------|
C|8-8-8--88-0-0-0--00-8-8-8--88-3-3--5-3-5-|

F|---------------------------------------------------------------|
C|---------------------------------------------------------------|
G|---------------------------------------------------------------|
C|8-8-8--/1010-0-0-0--00-8-8-8--/1010-3-3--5-3-5   (those are 10-|s btw)


Pre-chrous

F|----------------------------------------|
C|----------------------------------------|
G|----------------------------------------|
C|3~---5~---2~---3~---3~---5~---2~---3~---|

Chrous? (But I WON'T let her GO!) or sumfin lyk dat

F|-----------------|
C|-----------------|
G|-----------------|
C|8-8-8~--0-0-0~---|

Verse 2

F|-----------------------------------------|
C|-----------------------------------------|
G|-----------------------------------------|
C|8-8-8--88-0-0-0--00-8-8-8--88-3-3--5-3-5-|

F|-----------------------------------------|
C|-----------------------------------------|
G|-----------------------------------------|
C|8-8-8--88-0-0-0--00-8-8-8--88-3-3--5-3-5-|

F|---------------------------------------------------------------|
C|---------------------------------------------------------------|
G|---------------------------------------------------------------|
C|8-8-8--/1010-0-0-0--00-8-8-8--/1010-3-3--5-3-5   (those are 10-|s again btw)


Pre-chrous

F|----------------------------------------|
C|----------------------------------------|
G|----------------------------------------|
C|3~---5~---2~---3~---3~---5~---2~---3~---|


Outro

F|--------------------------------------------------------------|
C|--------------------------------------------------------------|
G|--------------------------------------------------------------|  x8 i think
C|3-3-3---5-5-5---2-2-2---3-3-3---3-3-3---5-5-5---2-2-2---3-3-3-|
            
Submit corrections

comments powered by Disqus
↑ Back to top | Madina Lake Bass for Adalia. Lyrics for acoustic guitar and electric guitar. Tablatures and chords are parodies/interpretations of the original songs. You may use it for private study, scholarship, research or language learning purposes only