» » »

Midi Surf Bass tabs (ver.2)

Artists:  A B C D E F G H I J K L M N O P Q R S T U V W X Y Z # 

Midi Surf Bass tabs (ver.2)

Mad Capsule Markets
Rating:
0/5 (0 votes)

Hard to play? Try these video lessons and learn fast.
                Note- This tab may not be 100% right, its just an advancement on the other one.

Note2- The song kicks in with a very heavy distorted bass riff, but this is played by 
Takeshi on pro tools and not the bass guitar.

Note3- This song rules!!! One of my favorite Mad capsule Markets songs, Best on OSC-DIS.

Tuning - standard

G
D
A
E

Bass Comes in

G--------------
D--------------
A--------------
E-0------------   Leave this note ringing

verse 1 (strive! evryone...)

G--------------
D--------------
A--------------
E-0------------   Leave this note ringing

verse1 sencond half


G--------------
D--------------
A--------------
E-0------------   Leave this note ringing

Japanese Verse

G--------------------------------------
D--------------------------------------
A--------------------------------------
E-0010-303-0010-303-0010-303-0010013^^^ Keep bending this note to make it go wahoahah

G--------------------------------------
D--------------------------------------
A--------------------------------------
E-0010-303-0010-303-0010-303-0--------- Second bar it doesnt play the last bit

(I'm Going mad from distorted sound)
G--------------------------------------
D--------------------------------------
A--------------------------------------
E-0010-303-0010-303-0010-303-0010013^^^ play 2X

Chorus (Ahhhhhhh, I'm Stoked...)

G---------------------------------
D---------------------------------
A---------55555555--------33333333 play 2x
E-33333333--------00000000--------

After the chorus it plays the japanses verse riff twice, i.e.
G--------------------------------------
D--------------------------------------
A--------------------------------------
E-0010-303-0010-303-0010-303-0010013^^^ play 2X

verse 2 (strive! evryone...)

G--------------
D--------------
A--------------
E-0------------   Leave this note ringing

verse 2 (strive! If Your hungr..)

G--------------
D--------------
A--------------
E-0------------   Leave this note ringing

verse 2 (strive! You can't do...)

G-------------------
D-------------------
A-------------------
E-0-------0010013^^^   Same as end of japanese verse

For the next bit just play the E string open in time

G----------------------------
D----------------------------
A----------------------------
E-0-------0--------0--------0 etc

Now there's a second japanese verse
this is played the same as the first

G--------------------------------------
D--------------------------------------
A--------------------------------------
E-0010-303-0010-303-0010-303-0010013^^^ Keep bending this note to make it go wahoahah

G--------------------------------------
D--------------------------------------
A--------------------------------------
E-0010-303-0010-303-0010-303-0--------- Second bar it doesnt play the last bit

(I'm Going mad from distorted sound)
G--------------------------------------
D--------------------------------------
A--------------------------------------
E-0010-303-0010-303-0010-303-0010013^^^ play 2X

Then it goes back into the Chorus

G---------------------------------
D---------------------------------
A---------55555555--------33333333 play 2x
E-33333333--------00000000--------

Now the guitar starts palm muteing while Takeshi plays his solo :s
This probably isnt right, so feel free to play this differently

G-9/12-9/12-9/12-9h12 ---
D--------------------12/0 Play 4x
A------------------------
E------------------------

G-1212-1212-1212-9h12----
D--------------------12/0
A------------------------ Play 4x
E------------------------

Then a thrid English Verse is played, this is the same as the first one

G-------
D-------
A-------
E-0----- Let note ring

Then a Chorus is played twice

G---------------------------------
D---------------------------------
A---------55555555--------33333333 play 4x
E-33333333--------00000000--------

Then a very fast outro riff is played

G--------------------------------------
D--------------------------------------
A-------------------------------------- Play 2x
E-00100131-00100131-00100131-0010013^^^

then play the E open, stop it quickly wait while the breakbeats bulid up the slam
the E open and let it ring (If you have a 5 string you can then slide down it, creating 
similar-ish noise the the end)


G---------------------------------------
D---------------------------------------
A---------------------------------------
E-0-------------------------------------0 Let it ring

There you go, This tab is right, and if you disagree watch the video and look at Takeshi's hand 
            
Hard to play? Try these video lessons and learn fast. | Correct




comments powered by Disqus
↑ Back to top | Tablatures and chords are parodies/interpretations of the original songs. You may use it for private study, scholarship, research or language learning purposes only