>
 >
Well Start To ***Ing Worry

Well Start To ***Ing Worry Bass Tabs

Mad Caddies - Well Start To ***Ing Worry chords, tabs, tablatures, lyrics

Guitar lessons | Add/correct | Request | Top 50 tabs Artists:  A B C D E F G H I J K L M N O P Q R S T U V W X Y Z 0-9

Well Start To ***Ing Worry Bass Tabs – Mad Caddies

CD, Sheet music, Poster

Do you like Well Start To ***Ing Worry? Share with your friends now
Bass Tabs
WE'LL START TO WORRY WHEN THE CYNICS START BELIEVING by Mad Caddies. Album :
Rock the Plank (2001)                                                     1/2
Superb ska-song! Lots of sliding in the bass lines...
:
# intro #
G-------------------------------------------------------------------|
D-------------------------------------------------------------------|
A---7\----------------------------------------------4-44-44---------|
E---------------------0--0----------0-----------------------7-5-7---|
:
# main #
G-------------------------------------------------------------------|
D-------------------------------------------------------------------|
A---7--4--7---------7774--7---------7--4--7---------4-44-44---------|
E------------5-5---------------5-------------5-5------------7-5-7---|
:
# verse # X2 (!second time without last two notes!)
G------------------------------------------------------------------|
D------464-----------------------------464-------------------------|
A---7\\---77\\--4----------7-7--\\--7\\---77\\-------------7-7--\\-|
E-------------------5--555----------------------4---5--555---------|
:
# end-verse # *=play 11X
G-----------------------------------|
D----*---------------*--------------| > Then play main, verseX2 and end-verse
A---5---------------2------------/\-|   (!2nd note 8X - without slides!).
E-----------------------------------|
:
# chorus # (But I won't...) X=mute  |=rhythm                           >
G---|---------------|---------------|---------------|------------------>
D---------------------------------------------------------------------->
A---7--5--4---2-2---5--4--2---XX0---7--5--4---2-2---3-3-3--35--0-0-0--->
E---------------------------------------------------------------------->
chorus
---|---------------|---------------|---------------|------------------|
---7--5--4---2-2---5--4--2---XX0------5--4---2-2---3--3-3-35--5-5-5---|
-----------------------------------0----------------------------------|
:
# bridge # |=single note
G----------------------------14131413\------------------------------|
D-------------------------------------------------------------------|
A---7\--------------------------------------------------------------|
E-----------------------------|-|-|-|-------------------------------|
:
Then play verseX2 and end-verse (!2nd note 8X - without slides!).
:
# chorus2 # (But I won't...) X=mute |=rhythm                           >
G---|---------------|---------------|---------------|------------------>
D---------------------------------------------------------------------->
A---7--5--4---2-2---5--4--2---XX0---7--5--4---2-2---3-3-3--35--0-0-0--->
E---------------------------------------------------------------------->
chorus2
---|---------------|---------------|---------------|------------------|
---7--5--4---2-2---5--4--2---XX0---7--5--4---2-2---3--3-3-35--5-5-5---|
:
# outro # *=play 5-7X                                                >
G-------------------------------------------------------------------->
D----*-------*-----------------------*-------*----------------------->
A---7-------4--------*-------*------7-------4--------*--------------->
E-------------------5-------0-----------------------5-------4-2-0-00->
outro                                                               >
----*-------*-----------------------*-------*-------*--------------->>to
---7-------4--------*-------*------7-------4-------2--------*-------> next
-------------------5-------0-------------------------------0--------> page...
WE'LL START TO WORRY WHEN THE CYNICS START BELIEVING                      2/2  
:
outro                                                               >
----*-------*---------------*-------*-------*-------*-------*------->
---7-------4--------*-----/7-------7-------4-------2-------2-------->
-------------------5------------------------------------------------>
outro
-----------------------|
----*------------------|
---3-------3-----------|
------------3------0---|
:
Final part is played only with guitars.
I'll stop tabbing when the cynics start believing!





Comments


Popular Mad Caddies tabs & chords
Road Rash Bass Tabs
Rockupation Bass Tabs
Wet Dog Intro Bass Tabs
Drinking For 11 Chords
Drinking For 11 1 Chords
Just One More Chords
Monkeys Chords
Contraband Drum Tabs
Silence Tabs
Youth Gone Wild Tabs


Song lyrics



↑ Back to top | Tablatures and chords are parodies/interpretations of the original songs. You may use it for private study, scholarship, research or language learning purposes only
© 2014 AZChords.com Contact us | Privacy policy | DMCA | Add/correct tabs | Request tabs | Top 50 tabs