>
 >
The Joust 1

The Joust 1 Bass Tabs

Mad Caddies - The Joust 1 chords, tabs, tablatures, lyrics

Guitar lessons | Add/correct | Request | Top 50 tabs Artists:  A B C D E F G H I J K L M N O P Q R S T U V W X Y Z 0-9

The Joust 1 Bass Tabs – Mad Caddies

CD, Sheet music, Poster

Do you like The Joust 1? Share with your friends now
Bass Tabs
THE JOUST by Mad Caddies. Album : Duck and Cover (1998)
Nice and versatile lines in this one. Very fun to play!
:
# intro # X2
G-----------------------------------|
D--------------7-------7------------|
A------7---7-58----7-58----7-7-7----|
E---5-8--58------58------58------5-0|
:
# verse #
G-------------------------------------------------------------------|
D-------------------------------------------------------------------|>Then
A-----------55-5----55-5----77-7-7-7--------55-5----55-5----77-775--| play
E---55-5-5-5----55-5----55-5--------55-055-5----55-5----55-5------87| introX2.
:
# verse2 #
G-------------------------------------------------------------------|
D-------------------------------------------------------------445544|      
A-----------55-5----55-5----77-7-7-7--------55-5----55-5----77------|      
E---55-5-5-5----55-5----55-5--------55-055-5----55-5----55-5--------|         
:
# chorus # *=play 8X #=play 4X %=pause
G----------*-----------------------*-----------------%%%%%-%%%%%|
D----*----2------*-----------*----2------*-----#-----%%%%%-%%%%%|
A---3-----------0------*----3-----------0-----0---#--%%%%%-%%%%%|
E---------------------1--------------------------3--1%%%%%0%%%%%|
:
# bridge # %=pause                                                  >
G------------------------------------------------------------------->
D-----------------------------------------------775\------------775\>
A---------------775\------------775\5535-535-535----5535-535-535---->
E---5535-535-535----5535-535-535------------------------------------>
bridge                                                             >
----------------------------------------------------%-%%-%-%-%--%-%>
----------------------------------------------------%-%%-%-%-%--%-%>
---------------775\7757-7-75535-5-5--------/77777770%0%%0%0%0%00%0%>
---5535-535-535--------------------5535-535---------%-%%-%-%-%--%-%>
bridge
----%-%%-%-%-%--%-%-%-%%-%-%-%--%-%-%-%%-%--%-%%-%--%-%%-%-%%------|
----%-%%-%-%-%--%-%-%-%%-%-%-%--%-%-%-%%-%--%-%%-%--%-%%-%-%%------|
---5%5%%5%5%5%55%5%0%0%%0%0%0%00%0%7%7%%7%75%5%%5%50%0%%0%0%%777777|
----%-%%-%-%-%--%-%-%-%%-%-%-%--%-%-%-%%-%--%-%%-%--%-%%-%-%%------|
:
Then play introX2, verse2 and chorus.
:
# bridge2 # #=play 4X
G--|-------------|2X|---------------|-----|2X|-------|------|2X|------|
D--|--------------------------------|----------------|----------------|
A--|---7---7---7-87----5---5---5-65-|----------------|-#---#---#---#--|
E--|558--58--58----8336--36--36----6|55-533-311-100-0|5---3---1---0---|
:
# verse4 #
G------------------------------------------------------------------->
D------------------------------------------------------------------->      
A-----------55-5----55-5----77-7-777--------55-5----55-5----77-7-77->      
E---55-5-5-5----55-5----55-5--------55-055-5----55-5----55-5-------0>         
verse4  
-------------------------------------------------------------445544|      
-----------55-5----55-5----77-7-777--------55-5----55-5----77------|      
---55-055-5----55-5----55-5--------55-055-5----55-5----55-5--------|





Comments


Popular Mad Caddies tabs & chords
Weird Beard Bass Tabs
Wet Dog Intro 2 Bass Tabs
Good Intentions 1 Chords
Macho Nachos Chords
10 West Tabs
10 West 2 Tabs
All American Badass Tabs
Day By Day 1 Tabs
Wet Dog Tabs
Drinking For 11 Ukulele


Song lyrics



↑ Back to top | Tablatures and chords are parodies/interpretations of the original songs. You may use it for private study, scholarship, research or language learning purposes only
© 2014 AZChords.com Contact us | Privacy policy | DMCA | Add/correct tabs | Request tabs | Top 50 tabs