>
 >
The Gentleman

The Gentleman Guitar Tabs

Mad Caddies - The Gentleman chords, tabs, tablatures, lyrics

Guitar lessons | Add/correct | Request | Top 50 tabs Artists:  A B C D E F G H I J K L M N O P Q R S T U V W X Y Z 0-9

The Gentleman Guitar Tabs – Mad Caddies

CD, Sheet music, Poster

Do you like The Gentleman? Share with your friends now
Bass TabsBass Tabs v2Tabs
 Guitar tabs - The Gentleman   [submitted by noz]   
     
  % = pause 
x= don't play 

I think its a bit wrong!! Not sure, u decide :)

   
  AFTER BASS & VOCAL INTRO   
E|-------------------------------------------------------------------------| 
B|-------------------------------------------------------------------------| 
G|------9--9--9------------------------------------------------------------| 
D|------9--9--9------------------------------------------------------------| 
A|------7--7--7------------------------------------------------------------| 
E|-------------------------------------------------------------------------| 


   
  MAIN RHYTHM PART   
E|------------------------------------------------------------------| 
B|------------------------------------------------------------------| 
G|-------5-5-5------------------------------------------------------| 
D|-7-7-7-5-5-5-5-5-5--3-3--2-2--------------------------------------| 
A|-7-7-7-3-3-3-5-5-5--3-3--2-2--------------------------------------| 
E|-5-5-5-------3-3-3--1-1--0-0--------------------------------------| x 2


   
  HORN BIT    
E|---------------------------------------------------------------------------| 
B|---------------------------------------------------------------------------| 
G|--5-----------5-----------5------------------------------------------------| 
D|--5-5-3-3-3---5-5-3-3-3---5-5-3-3-3-----3--5--7---7------------------------| 
A|--3-5-3-3-3---3-5-3-3-3---3-5-3-3-3-----3--5--7---7------------------------| 
E|----3-1-1-1-----3-1-1-1-----3-1-1-1------1--3--5---5-----------------------| 


   
  DURING HORN BIT    
E|--------------------------------------------------------------------| 
B|--------------------------------------------------------------------| 
G|--------------------------------------------------------------------| 
D|--7--7--7-5----7--7--7-5----7--7--7-5----7/5/7----------------------| 
A|--7--7--7-5----7--7--7-5----7--7--7-5----7/5/7----------------------| 
E|--5--5--5-3----5--5--5-3----5--5--5-3----5/3/5----------------------| x 4 
E|--------------------------------------------------------------------| 
B|--------------------------------------------------------------------| 
G|-----------------------------------------------9--------------------| 
D|-2---------------------------------------------9--------------------| 
A|-2---------------------------------------------7--------------------| 
E|-0------------------------------------------------------------------| 

Then pick-scratch and continue with the main rhythm part (x4) then the horn bit again. 

E|---------------------------------------------------------------------------| 
B|---------------------------------------------------------------------------| 
G|-5-----5-------------------------------------------------9-----------------| 
D|-5-7---5-3-----------------------------------------------9-----------------| 
A|-3-7---3-3-----------------------------------------------7-----------------| 
E|---5-----1-----------------------------------------------------------------| 

Then do the main rhythm bit twice (but palm-muted). 

This is the other guitar part I think. Not sure
E|---------------------------------------------------------------------------| 
B|---------------------------------------------------------------------------| 
G|------6------9-------------------------------------------------------------| 
D|------6------9----9----10----9---------------------------------------------| 
A|------4------7----9----10----9---------------------------------------------| 
E|------------------7----8-----7---------------------------------------------|

   
  LAST PART (AFTER THE HORN BIT )   
E|---------------------------------------------------------------------------| 
B|---------------------------------------------------------------------------| 
G|---------------5-----4-----6-----7-----5-----4--------------------------| 
D|---7-----3-----5-----4-----6-----7-----5-----4-------------------------| 
A|---7-----3-----3-----2-----4-----5-----3-----2-------------------------| 
E|---5-----1---------------------------------------------------------------| 


A wackeddog Production





Comments


Popular Mad Caddies tabs & chords
All American Badass Bass Tabs
Crew Cut Chuck 1 Bass Tabs
Days Away Bass Tabs
Distress 1 Bass Tabs
No Se' 1 Bass Tabs
Reflections Chords
Whatcha Gonna Do Chords
Apathetic Tabs
Medium Unwell Tabs
Big Brother Ukulele


Song lyrics



↑ Back to top | Tablatures and chords are parodies/interpretations of the original songs. You may use it for private study, scholarship, research or language learning purposes only
© 2014 AZChords.com Contact us | Privacy policy | DMCA | Add/correct tabs | Request tabs | Top 50 tabs