» » »

Mad Caddies, Something's Wrong At The Playground Bass tabs (ver.1)

Artists:  A B C D E F G H I J K L M N O P Q R S T U V W X Y Z # 

Something's Wrong At The Playground Bass tabs (ver.1)

Mad Caddies Tabs
 Rating:
4/5 (4 votes)
Something's Wrong At The Playground lessons Tabs too difficult? Try these video lessons and learn fast
                # main # +=play 12X *=play 5-6X                                
G----------------------------*--------------------------------------|
D----+-------+-------+------2---20---+-------+----------------------|
A---0------/5------40-------------420------/5------4---------*------|
E---------------------------------------------------00-010135---5\\-|
:
# verse #                                               
G--|------------|3X|---------------|--------------------------------|
D--|-------------------------------|--------------------------------|
A--|----------------5-5-555-5-5-555|----------------5-5---5-8-8---8-|
E--|5-5-555-2-2-5-5----------------|5-5-555-2-2-5-5-----------------|
:
# pre-chorus # #=play 3X                                                    >
G--------------------------------------------------------------------------->
D--------------------------------------------------------------------------->
A----#---#---#---#---#---#---#---#---#---#---#---#---#--0--0-#--0--0-#---#-->
E---2---1---5---5---2---1---5---3---2---1---5---5---2-----2-1-----1-0---0--->
pre-chorus
-------------------|
--------#-------#--|
---5---5---8---8---|
-------------------|
:
# chorus # #=play 3-4X            
G-------------------------------------------------------------------|
D----------------------------------------------------------------#--|
A----#---#---#---#---#---#---#--5424-#---#---#---#---#---#---#--5---|
E---5---5---2---0---5---5---2-------5---5---2---0---5---5---2-------|
            
Submit corrections

comments powered by Disqus
↑ Back to top | Mad Caddies Bass for Something's Wrong At The Playground. Lyrics for acoustic guitar and electric guitar. Tablatures and chords are parodies/interpretations of the original songs. You may use it for private study, scholarship, research or language learning purposes only