>
 >
Sad Reggie

Sad Reggie Guitar Tabs

Mad Caddies - Sad Reggie chords, tabs, tablatures, lyrics

Guitar lessons | Add/correct | Request | Top 50 tabs Artists:  A B C D E F G H I J K L M N O P Q R S T U V W X Y Z 0-9

Sad Reggie Guitar Tabs – Mad Caddies

CD, Sheet music, Poster

Do you like Sad Reggie? Share with your friends now
Tabs
Intro(partie 1)

  Dm
e-3--3-------
B-4----4-----
G-5------5---
D-5--------5-
A-3----------
E-3----------

Intro(partie 2) & Couplets(verse)

Dm C Dm C Dm C Dm C A A


Refrain (Chorus)

Dm A A# A

Break distortion

Dm A Dm A G G A Dm G A

Solos:

  Dm     C       Dm         C             (Dm)
e---------------------------------------------
B---------------------------------------------
G----9h10p9--------9h10-12-10p9-10-10p9-------
D-/12------10-10/12--------------------10h12-
A---------------------------------------------
E---------------------------------------------

Solo de cuivres (Dm C Dm C Dm C Dm C A A)x2

  Dm     C      Dm       C     Dm          C    Dm          C                 Dm
e-------------------------------------------------------------------------------------
B-------------------------------------------------------------------------------------
G-v12-12-10v12v12v12-12-10--10-10\999\777\55/7-7h8h9-8h9h10-10h11h12-12h14h15-14-12-14
D-------------------------12----------------------------------------------------------
A-------------------------------------------------------------------------------------
E-------------------------------------------------------------------------------------

  C           Dm             C             Dm                C        Dm            C  
e---------------------------------------------------------------------------------v17-
B--------------------------------------------------------v17v17-15--------------13----
G-12-15-12-14-12h14h15-14-12-14--------14--12h14h15-14-12---------14-12h14h15-14------
D------------------------------12-15-12--12-------------------------------------------
A-------------------------------------------------------------------------------------
E-------------------------------------------------------------------------------------





Comments


Popular Mad Caddies tabs & chords
Betty Bass Tabs
Last Breath 1 Bass Tabs
State Of Mind Bass Tabs
Coyote Chords
Without You Chords
Econoline Drum Tabs
Hound Bound Tabs
Silence Tabs
Just One More Ukulele
Reflections Ukulele


Song lyrics



↑ Back to top | Tablatures and chords are parodies/interpretations of the original songs. You may use it for private study, scholarship, research or language learning purposes only
© 2014 AZChords.com Contact us | Privacy policy | DMCA | Add/correct tabs | Request tabs | Top 50 tabs