» » »

One Shot Tabs (ver.1)

Artists:  A B C D E F G H I J K L M N O P Q R S T U V W X Y Z # 

One Shot Tabs (ver.1)

Mad Caddies
Rating:
0/5 (0 votes)

Hard to play? Try these video lessons and learn fast.
                Mad Caddies - One Shot

Chords (upstrokes)

    G  A  Dm C

E|--3--5--5--3--|
B|--3--5--6--5--|
G|--4--6--7--5--|
D|--5--7--7--5--|
A|--5--7--5--3--|
E|--3--5--------|

G
poor man cry out to his god
                 A
his dying and hungry
G
rich man have a heart attack
                     A
worrying about his money
G
he alienates himself from his family
                                   A
and points the blame in some other direction
G
the other never had no one
               A
he only needed affection 


(with Wah Wah)
         Dm
                  C
to another I hear them say
                                   Dm  
they need to find a piece of inner protection
                 C
a remedy to take their hurt away


A 
in their on minds they failed
             Dm
you see them fallen
         A
one shot left at redemption
             Dm 
has got them calling


Intro (with Wah Wah)

E|--------------------------------------------------------|
B|--------------------------------------------------------|
G|--------------------------------4h6-x-x-6--7-6-4--------|
D|5h7-x-x-7p5-x-x-5h7-x-x-7p5-x-x------------------7------|
A|--------------------------------------------------------|
E|--------------------------------------------------------|

E|--------------------------------------------------------|
B|--------------------------------------------------------|
G|--------------------------------4h6-x-x-6--7-6-4--------|
D|5h7-x-x-7p5-x-x-5h7-x-x-7p5-x-x------------------7------|
A|--------------------------------------------------------|
E|--------------------------------------------------------|

E|--------------------------------------------------------|
B|--------------------------------------------------------|
G|9-9-9\7-7-7-7\6-6-6-6\4-4-4-4\2-2-2-0h2-x-x-2-2-2b4-0-2-|
D|--------------------------------------------------------|
A|--------------------------------------------------------|
E|--------------------------------------------------------|

E|--------------------------------------------------------|
B|--------------------------------------------------------|
G|9-9-9\7-7-7-7\6-6-6-6\4-4-4-4\2-2-2-0h2-x-x-2-2-2b4-0-2-|
D|--------------------------------------------------------|
A|--------------------------------------------------------|
E|--------------------------------------------------------|

E|-------------------------------------------------------17\|
B|----8-5-------8-5---8/10-10-10-10/12-12-12-12/14-14-14----|
G|6-7-----7-6-7-----7---------------------------------------|
D|----------------------------------------------------------|
A|----------------------------------------------------------|
E|----------------------------------------------------------|

E|--------------------------------------------------------|
B|----8-5-------8-5---8/10-10-10-10/12-12-12-12/14-14-14--|
G|6-7-----7-6-7-----7-------------------------------------|
D|--------------------------------------------------------|
A|--------------------------------------------------------|
E|--------------------------------------------------------|
            
Hard to play? Try these video lessons and learn fast. | Correct




comments powered by Disqus
↑ Back to top | Tablatures and chords are parodies/interpretations of the original songs. You may use it for private study, scholarship, research or language learning purposes only