» » »

No Hope Tabs (ver.1)

Artists:  A B C D E F G H I J K L M N O P Q R S T U V W X Y Z # 

No Hope Tabs (ver.1)

Mad Caddies
Rating:
0/5 (0 votes)

Hard to play? Try these video lessons and learn fast.
                
      / \  - slides    ~= vibrato   

[x]= artificial harmonic (follow through w/ thumb) 

Intro Riff
e|-----------------|
B|-----------------|
G|-----------------|
D|-----------------|
A|--5-4--4-[1]~----|
E|-----------------|

Second quiet riff with horns
e|------------------------------------------|
B|------------------------------------------|
G|------------------------------------------|
D|--------------------2-0-------------------|
A|--0-----0-[2]~-----------4--4-1-0-----2---|
E|----0-2------------------------=----2-----|

rhythm break      (repeat however many times necessary
e|--2-x-2-x-2-x-2--------|
B|--3-x-3-x-3-x-3--------|
G|--4-x-4-x-4-x-4--------|
D|--4-x-4-x-4-x-4--------|
A|--2-x-2-x-2-x-2--------|
E|-----------------------|

Main progression  (repeat through most of the song)
e|--2-x-2-x-2-x-2-x-2-x-5-x-3-x-2----|
B|--3-x-3-x-3-x-3-x-3-x-5-x-3-x-2----|
G|--4-x-4-x-4-x-4-x-4-x-6-x-4-x-3----|
D|--4-x-4-x-4-x-4-x-4-x-7-x-5-x-4----|
A|--2-x-2-x-2-x-2-x-2-x-7-x-5-x-4----|
E|--------------------x-5-x-3-x-2----|

"you are going no where..."
e|--/-7-7-7-7--*--------------------------|
B|--/-8-8-8-8--*-12--11--7----------------|
G|--/-9-9-9-9--*-12--11--7--or-12-11-7----|
D|--/-9-9-9-9--*-12--11--7------x--x-x----|
A|--/-7-7-7-7--*-10---9--5-----10--9-5----|
E|-------------*--------------------------|
            
Hard to play? Try these video lessons and learn fast. | Correct




comments powered by Disqus
↑ Back to top | Tablatures and chords are parodies/interpretations of the original songs. You may use it for private study, scholarship, research or language learning purposes only