» » »

Nobody Wins At The Laundromat Bass tabs (ver.1)

Artists:  A B C D E F G H I J K L M N O P Q R S T U V W X Y Z # 

Nobody Wins At The Laundromat Bass tabs (ver.1)

Mad Caddies
Rating:
0/5 (0 votes)

Hard to play? Try these video lessons and learn fast.
                Artist	Mad Caddies
Song	Nobody Wins At The Laundromat
Album	The Holiday Has Been Cancelled

Standard Tuning


Intro
1|--------------------------|
2|--------------------------| 2x
3|--------------------------|
4|-1-1--1--4-4--4--0-0--0-1-|

Verse
1|-------------------------------------------------------------
2|-------------------------------------------------------------
3|-------------------------------------------------------------
4|-1-1-4-1--1-4-1--1-4-1--6-6-4--1-1-4-1--1-4-1--1-4-1--6-6-7--
Cont.
1|---------------------------------------------------|
2|---------------------------------------------------| 2x
3|-------------------------------7-7-7-7-7-8-8-8-8-8-|
4|-1-1-4-1--1-4-1--1-4-1--6-6-4----------------------|

1st Chorus
1|-------------------------------------------------------------------
2|-------------------------------------------------------------------
3|-------------4-4-4-4-4-4-4-4-------------1-1-1-1-1--12-------------
4|-1-1-1-1-1-1-----------------4-4-4-4-4-4---------------1-1-1-1-1-1-
Cont.
1|-----------------------------------------
2|-----------------------------------------
3|-4-4-4-4-4-4-4-4-7-7-7-7-7-7-8-8-8-8-8-8-
4|-----------------------------------------

Verse 3x

2nd Chorus
1|-------------------------------------------------------------------
2|-------------------------------------------------------------------
3|-------------4-4-4-4-4-4-4-4-------------1-1-1-1-1--12-------------
4|-1-1-1-1-1-1-----------------4-4-4-4-4-4---------------1-1-1-1-1-1-
Cont.
1|---------------------------------------------------------------------
2|---------------------------------------------------------------------
3|-4-4-4-4-4-4-4-4-------------1-x-x-x-x-x-------------4-4-4-4-4-4-4-4-
4|-----------------4-4-4-4-4-4-------------1-1-1-1-1-1-----------------
Cont.
1|------------------------------------------------------------------------|
2|------------------------------------------------------------------------|
3|-------------1-1-1-1-1-1--12/--------------4-4-4-4-4-4-4-4-777777888888-|
4|-4-4-4-4-4-4-------------------1-1-1-1-1-1------------------------------|

Bridge
1|----------------------------------------------------------------|
2|----------------------------------------------------------------| 3x
3|----------------------------------------------------------------|
4|-1-1--1--4-4--4--6-6--6--6-6--6--1-1--1--4-4--4--0-0--0--1-1--1-|

2nd Chorus

Outro (Really Fast)			4x	Last Time End W/
1|----------------------------------------|------------------|
2|----------------------------------------|------------------|
3|----------------------------------------|-1---1------------|
4|-1111-4444-66666666-1111-4444-0000-1111-|---4---4-1111-0-1-|

Please rate this tab, Thanks.
            
Hard to play? Try these video lessons and learn fast. | Correct




comments powered by Disqus
↑ Back to top | Tablatures and chords are parodies/interpretations of the original songs. You may use it for private study, scholarship, research or language learning purposes only