» » »

Mad Caddies, Macho Nachos Bass tabs (ver.1)

Artists:  A B C D E F G H I J K L M N O P Q R S T U V W X Y Z # 

Macho Nachos Bass tabs (ver.1)

Mad Caddies Tabs
 Rating:
4/5 (4 votes)
Macho Nachos lessons Tabs too difficult? Try these video lessons and learn fast
                
It's about time someone tabbed this song.

Intro Riff 1

G:---------------------|
D:---------------------|
A:-----------------3-5-|
E:-3---0---3---0-------|

Intro Riff 2

G:----------------------|
D:----------------------|
A:----------------3-3-5-|
E:-3>-0>-3>-0>-3>-------|

Verse

G:-------------------------------------------------|
D:-------------------------------------------------|
A:-------------5-5-5-5-5-5-------------3-3-3-3-3-3-|
E:-3-3-3-3-3-3-------------1-1-1-1-1-1-------------|

G:-------------------------------------------------|
D:-------------------------------------------------|
A:-------------5-5-5-5-5-5-------------3-3-3-3-3-3-|
E:-3-3-3-3-3-3-------------1-1-1-1-1-1-------------|

G:-------------------------------------------------|
D:-------------------------------------------------|
A:-------------------------------------3-3-3-3-3-3-|
E:-3-3-3-3-3-3-1-1-1-1-1-1-0-0-0-0-0-0-------------|

G:-------------------------------------------------|
D:-------------------------------------------------|
A:-------------5-5-5-5-5-5-------------3-3-3-3-5-5-|
E:-3-3-3-3-3-3-------------1-1-1-1-1-1-------------|

Chorus

G:-------------------------|
D:-------------------------|
A:-7-7-7-5-5-5-3-5-7-7-5-3-|
E:-------------------------|

G:-----------------------------|
D:-----------------------------|
A:-7-7-7-5-5-5-3-3-3-3-3-3-3-3-|
E:-----------------------------|



G:-------------------------------------|
D:-------------------------------------|
A:-7-7-7-5-5-5-3-3-3-3-3-3-3-5---5-3-2-|
E:-------------------------------------|

Pre-Solo Bridge

G:---------------------------------|
D:---------------------------------|
A:---------3---5---------------3---|
E:-3---0-----------3---1---0-------|

Guitar Solo

G:-------------|
D:-------------|
A:----3>----3>-|
E:-3>----1>----|

Post-Solo Bridge

G:-----------------------------7-5--------------|
D:---------------------------------9-7-9-7------|
A:-------------3-----------3---------------10-9-|
E:-3---1---0-------3---1------------------------|

I'm not sure about that final fill bit but it sounds basically right.
            
Submit corrections

comments powered by Disqus
↑ Back to top | Mad Caddies Bass for Macho Nachos. Lyrics for acoustic guitar and electric guitar. Tablatures and chords are parodies/interpretations of the original songs. You may use it for private study, scholarship, research or language learning purposes only