» » »

Mad Caddies, Just One More Bass tabs (ver.1)

Artists:  A B C D E F G H I J K L M N O P Q R S T U V W X Y Z # 

Just One More Bass tabs (ver.1)

Mad Caddies Tabs
Rating:
0/5 (0 votes)
Just One More lessons Tabs too difficult? Try these video lessons and learn fast
                Mad Caddies

INTRO + FILLS
E-----------555-----------|


VERSE
G--------|	G---------------|----------|
D--------|	D-----------2-2-|----------|
A--------|X4	A-2-2----2-2----|----------|
E-5-50-0-|	E----4-4--------|-5-50-0-5-|

FILL INTO CHORUS

CHORUS
G--------|--------|--------|---------|
D--------|--------|--------|---------|
A----3-3-|----3-3-|----7-7-|----7-7--|
E-1-1----|-1-1----|-5-5----|-5-5-----|
				      
		   [   1st ending   ] [  2nd ending(3:07) ]
G--------|--------|--------|---------|---------------------|
D--------|--------|--------|---------|---------------------|
A----2-2-|----2-2-|----7-7-|-2-0-----|---------------------|
E-0-0----|-0-0----|-5-5----|-----3-0-|-00-0-00-0-444-777---|


ENDING
G--------|--------|
D--------|--------|
A--------|--------|X2
E-5-53-3-|-1-10-0-|

G-------|-------|-----------|--^--|--^--|
D-------|-------|-----------|-----|-----|
A-------|-------|-----------|-----|-----|
E-55-33-|-11-00-|-55-33-1---|--0--|--5--|

no necesito la vida rica...estoy contento contigo !!
            
Submit corrections

comments powered by Disqus
↑ Back to top | Mad Caddies Bass for Just One More. Lyrics for acoustic guitar and electric guitar. Tablatures and chords are parodies/interpretations of the original songs. You may use it for private study, scholarship, research or language learning purposes only