» » »

Mad Caddies, Hound Bound Tabs (ver.1)

Artists:  A B C D E F G H I J K L M N O P Q R S T U V W X Y Z # 

Hound Bound Tabs (ver.1)

Mad Caddies Tabs
Rating:
0/5 (0 votes)
Hard to play? Try these video lessons and learn fast.
                HOUND BOUND by Mad Caddies. Album : Rock the Plank (2001)                 1/3
Rocking riffs in this one, but I left that stupid C guitar out of the bridge,
'cause it's impossible to catch.
A=left guitar   B=right guitar   A&B=both
:
# intro #A&B                        
E-------------------------|         
B-------------------------|         
G----strum-all-the-time---|             
D-------------------------|
A-------------------------|
E--19\\\\\\\\\\\\\\\\\\\\-|
:
# main #A
E--|------------3X-----------------|---------------------------------|
B--|-------------------------------|---------------------------------|
G--|-------------------------------|----------------7-6--------------|
D--|-------------------------------|----------------7-6---9---7------|
A--|--------3-4-----2-4-5-----5-4--|--------3-4-----5-4---9---7------|
E--|2-2-5-0-----5-0-------0-2------|2-2-5-0-----5-0-------7---5------|
# main #B                                                            >
E-------------------------------------------------------------------->
B-------------------------------------------------------------------->
G-------------------------------------------------------------------->
D-------------------------------------------------------------4-3---->
A-----------3-4-----2-4-5-----5-4-----------3-4-----2-4-5------------>
E---2-2-5-0-----5-0-------0-2-------2-2-5-0-----5-0-------0-2-------->
mainB
---------------------------------------------------7-6--------------|
---------------------------------------------------7-6---9---7------|
-----------3-4-----2-4-5-----5-4-----------3-4-----5-4---9---7------|
---2-2-5-0-----5-0-------0-2-------2-2-5-0-----5-0-------7---5------|
:
# pre-verse #A&B                                                     
E-----------------------------------------------------------------|
B-----------------------------------------------------------------|
G-------------------------------------------------------------7---|
D-------------------------------------------------------------7---|
A---4-4-----4-4-----4-4-----4-4-----4-4-----4-4-----4-4-----4-5---|
E-0-2-2---002-2---0-2-2---002-2---0-2-2---002-2---0-2-2---002-5---|
pre-verseA&B
---4-4-----4-4-----4-4-----4-4-----4-4-----4-4-----4-4-----4-5---|
---2-2---002-2---0-2-2---002-2---0-2-2---002-2---0-2-2---002-5---|
:
# verse #A&B  X=left-hand-mute                                       >
E---XX2-XX2-XX2-XX2-XX2-XX2-XX2-XX2-XX5-XX5-XX5-XX5-XX2-XX2-X2-X22-2->
B---XX2-XX2-XX2-XX2-XX2-XX2-XX2-XX2-XX5-XX5-XX7-XX7-XX2-XX2-X2-X22-2->
G---XX2-XX2-XX2-XX2-XX2-XX2-XX2-XX2-XX6-XX6-XX7-XX7-XX2-XX2-X2-X22-2->
D---XX4-XX4-XX4-XX4-XX4-XX4-XX4-XX4-XX7-XX7-XX7-XX7-XX4-XX4-X4-X4424->
A---XX4-XX4-XX4-XX4-XX4-XX4-XX4-XX4-XX7-XX7-XX5-XX5-XX4-XX4-X4-X4424->
E---XX2-XX2-XX2-XX2-XX2-XX2-XX2-XX2-XX5-XX5-XX--XX--XX2-XX2-X2-X2202->
:    F#m                              A       D      F#m
verseA&B
---XX2-XX2-XX2-XX2-XX2-XX2-XX2-XX2-XX5-XX5-XX5-XX5-XX2-XX2-X2-X22--|
---XX2-XX2-XX2-XX2-XX2-XX2-XX2-XX2-XX5-XX5-XX7-XX7-XX2-XX2-X2-X22--|
---XX2-XX2-XX2-XX2-XX2-XX2-XX2-XX2-XX6-XX6-XX7-XX7-XX2-XX2-X2-X22--|
---XX4-XX4-XX4-XX4-XX4-XX4-XX4-XX4-XX7-XX7-XX7-XX7-XX4-XX4-X4-X447-|
---XX4-XX4-XX4-XX4-XX4-XX4-XX4-XX4-XX7-XX7-XX5-XX5-XX4-XX4-X4-X447-|
---XX2-XX2-XX2-XX2-XX2-XX2-XX2-XX2-XX5-XX5-XX--XX--XX2-XX2-X2-X225-|
:
to next page...
:                                            
HOUND BOUND                                                               2/3
:                                             
# pre-chorus #A m=palm-mute  %=pause           
E-------7--|m-m----|----2--|7------|m-m----|--%%--%%----------%%--%%---------|
B----------|---3X--|-4X-2--|7------|-------|--%%--%%----------%%--%%---------|
G----------|-------|----2--|7------|-------|7-%%7-%%7-7-7-7-9-%%9-%%9-9-9-911\
D---9------|9-9-9--|4---4--|9------|9-9-9--|7-%%7-%%7-7-7-7-9-%%9-%%9-9-9-911\
A---9------|9-9-9--|4---4--|9------|9-9-9--|5-%%5-%%5-5-5-5-7-%%7-%%7-7-7-7-9\
E---7------|7-7-7--|2---2--|7------|7-7-7--|--%%--%%----------%%--%%---------|
# pre-chorus #B m=palm-mute  %=pause
E----------|m-m----|2---2--|2------|m-m----|--%%--%%----------%%--%%---------|
B----------|---3X--|24X-2--|3------|-------|--%%--%%----------%%--%%---------|
G---4------|4-4-4--|2---2--|4------|4-4-4--|7-%%7-%%7-7-7-7-9-%%9-%%9-9-9-911\
D---4------|4-4-4--|4---4--|4------|4-4-4--|7-%%7-%%7-7-7-7-9-%%9-%%9-9-9-911\
A---2------|2-2-2--|4---4--|2------|2-2-2--|5-%%5-%%5-5-5-5-7-%%7-%%7-7-7-7-9\
E----------|-------|2---2--|-------|-------|--%%--%%----------%%--%%---------|
:
# chorus #A&B #=play 3-4X   "=play 2X  m=palm-mute
E-------------2#--------------2#----------------------------mmmmmmmm----|
B---#---------2-----#---------2-----------------------------------------|
G--7----"-"---2----7----#-----2-----#---"-"-----------------------------|
D--7----7-7-4-4----7---7----4-4----7----7-7-7-------2---------------4---|
A--5----4-0-4-4----5---7----4-4----5----4-0-7-------2-------444444444---|
E-----------2-2----5---5----2-2----5--------5-------0-------222222222---|
:
# into-main #B
E-------|
B-------|
G-------|        > Then play AmainA or BmainB and A&Bpre-verseA&B.
D-------|
A-------|
E--14\\-|
:
# verse2 #A&B  X=left-hand-mute                                      >
E---XX2-XX2-XX2-XX2-XX2-XX2-XX2-XX2-XX5-XX5-XX5-XX5-XX2-XX2-X2-X22-2->
B---XX2-XX2-XX2-XX2-XX2-XX2-XX2-XX2-XX5-XX5-XX7-XX7-XX2-XX2-X2-X22-2->
G---XX2-XX2-XX2-XX2-XX2-XX2-XX2-XX2-XX6-XX6-XX7-XX7-XX2-XX2-X2-X22-2->
D---XX4-XX4-XX4-XX4-XX4-XX4-XX4-XX4-XX7-XX7-XX7-XX7-XX4-XX4-X4-X4424->
A---XX4-XX4-XX4-XX4-XX4-XX4-XX4-XX4-XX7-XX7-XX5-XX5-XX4-XX4-X4-X4424->
E---XX2-XX2-XX2-XX2-XX2-XX2-XX2-XX2-XX5-XX5-XX--XX--XX2-XX2-X2-X2202->
:    F#m                              A       D      F#m
verse2A&B
---XX2-XX2-XX2-XX2-XX2-XX2-XX2-XX2-XX5-XX5-XX5-XX5-XX2-XX2-X-------|
---XX2-XX2-XX2-XX2-XX2-XX2-XX2-XX2-XX5-XX5-XX7-XX7-XX2-XX2-X-------|
---XX2-XX2-XX2-XX2-XX2-XX2-XX2-XX2-XX6-XX6-XX7-XX7-XX2-XX2-X-------|
---XX4-XX4-XX4-XX4-XX4-XX4-XX4-XX4-XX7-XX7-XX7-XX7-XX4-XX4-X7-7-47-|
---XX4-XX4-XX4-XX4-XX4-XX4-XX4-XX4-XX7-XX7-XX5-XX5-XX4-XX4-X7-7-47-|
---XX2-XX2-XX2-XX2-XX2-XX2-XX2-XX2-XX5-XX5-XX--XX--XX2-XX2-X5-5-25-|
:
Then play A&Bpre-chorusB.
:
# chorus2 #A&B *=play 5-6X  #=play 3-4X   "=play 2X  m=palm-mute
E-------------2#--------------2#------------------------------2*--|
B---#---------2-----#---------2-------------------------------2---|
G--7----"-"---2----7----#-----2-----#---"-"--*------*---------2---|
D--7----7-7-4-4----7---7----4-4----7----7-7-7------9--------4-4---|
A--5----4-0-4-4----5---7----4-4----5----4-0-7------9--------4-4---|
E-----------2-2----5---5----2-2----5--------5------7--------2-2---|
:
Then play A&BchorusA&B.
to next page...
:
:
:
:
:
:
:
HOUND BOUND                                                               3/3
:
# bridge #A
E-------------------------------------------------------------------|
B-------------------------------------------------------------------|
G-------------------------------------------------------------------|
D-------4442--3-2224----4442555/7750----4442----3334----4442--------|
A-----------3-----------------------------------------------5424542-|
E---2-2-------------2-2-------------2-2-----2-2-----2-2-------------|
# bridge #B
E-------------------------------------------------------------------|
B-------------------------------------------------------------------|
G-------------------------------------------------------------------|
D-------------------------------------------------------------------|
A-----------------------------442244--------------------------44554-|
E---2-2-20202-2-20202-2-202055------2-2-20202-2-20202-2-202055------|
:
Then play A&Bpre-chorusB and A&Bchorus2A&BX2 (2nd time wihout last two notes).
:
# outro #A&B %=pause   m=palm-mute
E----%-%-%-%-%-%-%-%-%-%-%-%-mm-mm--2---|
B----%-%-%-%-%-%-%-%-%-%-%-%--------2---|
G----%-%-%-%-%-%-%-%-%-%-%-%--------2---|
D---7%7%7%7%9%9%9%9%7%7%7%7%9999999\4---|
A---7%7%7%7%9%9%9%9%7%7%7%7%9999999\4---|
E---5%5%5%5%7%7%7%7%5%5%5%5%7777777\2---|
:
# outro2 #A
E--------------------------------------|
B--------------------------------------|
G------------------7-6------------11\--|
D------------------7-6---9---7----11\--|
A------------------5-4---9---7-----9\--|
E------------------------7---5---0-----|
# outro2 #B
E--------------------------------------|
B--------------------------------------|
G------------------7-6------------11\--|
D------------------7-6---9---7----11\--|
A----------3-4-----5-4---9---7-----9\--|
E--2-2-5-0-----5-0-------7---5---0-----|
            

comments powered by Disqus
↑ Back to top | Mad Caddies Tabs for Hound Bound. Lyrics for acoustic guitar and electric guitar. Tablatures and chords are parodies/interpretations of the original songs. You may use it for private study, scholarship, research or language learning purposes only