» » »

Mad Caddies, Goleta Bass tabs (ver.1)

Artists:  A B C D E F G H I J K L M N O P Q R S T U V W X Y Z # 

Goleta Bass tabs (ver.1)

Mad Caddies Tabs
Rating:
0/5 (0 votes)
Goleta lessons Tabs too difficult? Try these video lessons and learn fast
                GOLETA by Mad Caddies. Album : Quality Softcore (1998)
:
# verse-1 #  x4
G----------------------------------------------------|
D----------------------------------------------------|
A---3-----3-----3-3--------------3-----3-------5-3---|
E------3-----3-------3--2-----3-----3------33--------|
:
# verse-2 # 
G-------(x3)------|-------------|-------(x3)------|---------------|
D-----------------|-------------|-----------------|---------------|
A---33------------|---33----3---|---33------------|---3333----3---|
E------44-66-33---|------33-----|------44-66-33---|--------33-----|
:
# fill #
G------------------------|
D------------------------|
A------------------------|
E---3---3---3--3---15/---|
:
Then Play verse-1 & verse-2
:
            

comments powered by Disqus
↑ Back to top | Mad Caddies Bass for Goleta. Lyrics for acoustic guitar and electric guitar. Tablatures and chords are parodies/interpretations of the original songs. You may use it for private study, scholarship, research or language learning purposes only