» » »

Mad Caddies, Freak Of Nature Tabs (ver.1)

Artists:  A B C D E F G H I J K L M N O P Q R S T U V W X Y Z # 

Freak Of Nature Tabs (ver.1)

Mad Caddies Tabs
 Rating:
4/5 (4 votes)
Freak Of Nature lessons Tabs too difficult? Try these video lessons and learn fast
                IVY LEAGUE
FREAK OF NATURE

it's easy but i hate having to play the ska notes like that


bass and drums intro



intro for guitar
E-----------------|
B-----------------|
G------7---9------|
D--7---7---9------|
A--7---5---7--X2--|
E--5--------------|

verses
E--0-0-0-0--5-5-7-7---|
B--2-2-2-2--7-7-9-9---|
G--2-2-2-2--7-7-9-9---|
D---------------------|
A---------------------|
E---------------------|

chorus
E--------------------------------------|
B--------------------------------------|
G------------99999999-------------9----|
D------------99999999--99999999---9----|
A--99999999--77777777--99999999---7----|
E--77777777------------77777777--------|
            
Submit corrections

comments powered by Disqus
↑ Back to top | Mad Caddies Tabs for Freak Of Nature. Lyrics for acoustic guitar and electric guitar. Tablatures and chords are parodies/interpretations of the original songs. You may use it for private study, scholarship, research or language learning purposes only