>
 >
Econoline

Econoline Guitar Tabs

Mad Caddies - Econoline chords, tabs, tablatures, lyrics

Guitar lessons | Add/correct | Request | Top 50 tabs Artists:  A B C D E F G H I J K L M N O P Q R S T U V W X Y Z 0-9

Econoline Guitar Tabs – Mad Caddies

CD, Sheet music, Poster

Do you like Econoline? Share with your friends now
Bass TabsBass Tabs v2Drum TabsTabs
Guitar tabs - Econoline   [submitted by noz]   
     
  % = pause 
x= don't play 

You figure out the rhythm..It's easy enough. These are powerchords.

   
  INTRO BIT (quick down-strokes)    
  Distortion
E ----------------------------------------------------------| "I heard you call my name...."
B ----------------------------------------------------------|
G --7-------------------------------------------------------| 
D --7---%---7---------4-4-4-4-4-4-4-4---5-5-5-5-5--|
A --5--------7---%----4-4-4-4-4-4-4-4---5-5-5-5-5--|
E --x---------5---------2-2-2-2-2-2-2-2---3-3-3-3-3--| x 2

   
  VERSE bit thing.    
E-----------------------------------------------------------------------------------------|
B-----------------------------------------------------------------------------------------|
G--7-7-7-7-7-7-7--------------------------------------------------------------------------|
D--7-7-7-7-7-7-7------7-7-7-7-7-7-7------9-9-9-9-9-9-9------5-5-5-5-5-5-5-----------------| "i have got 
A--5-5-5-5-5-5-5------7-7-7-7-7-7-7------9-9-9-9-9-9-9------3-3-3-3-3-3-3-----------------| responsabilities" 
E--x-x-x--x-x-x-x-------5-5-5-5-5-5-5------7-7-7-7-7-7-7------3-3-3-3-3-3-3---------------|

   
  BRIDGE PART. (The ska bit) (CLEAN)    
  Distortion. 
"Time to let myself slow down....." 
E---------------------------------------------------------------------------------------------|
B---------------------------------------------------------------------------------------------|
G--11-11-11-11-11-11-11-11-11-11-11-11-11-11-11-----------------------------------------------| 
D--11-11-11-11-11-11-11-11-11-11-11-11-11-11-11------5-5-5-5-5-5-----7-7-7-7-7----------------|
A---9--9---9--9---9--9---9--9---9--9---9--9---9--9--9------5-5-5-5-5-5-----7-7-7-7-7----------|
E---x--x---x---x--x---x--x--x---x--x---x---x---x--x--x--------3-3-3-3-3-3-----5-5-5-5-5-------| x 2

   
  CHORUS    
  "I'm on the outside looking in...."
E--------------------------------------------------------------------------------------------| 
B--------------------------------------------------------------------------------------------| 
G--------------------------7-7-7-------------------------------------------------------------| 
D--9-9-9---7-7-7-7------7-7-7---5-5-5-5------9-9-9-----7-7-7-7----4-4-4-4----5---------------| 
A--9-9-9---7-7-7-7--%--5-5-5---5-5-5-5-%--9-9-9-----7-7-7-7-----4-4-4-4----5-----------------| 
E--7-7-7---5-5-5-5----------------3-3-3-3------7-7-7----5-5-5-5----2-2-2-2----3--------------| x 2

"Get it out've my head..." (or whatever it is)
E------------------------------------------------------------|
B------------------------------------------------------------| 
G-------7-5-9-------------------7--------------------7-------| 
D--9----7-5-9-----9-9-9-9-7-7-7-----9-9-9-9-7-7-7------------|
A--9----5-3-7-----9-9-9-9-7-7-5-----9-9-9-9-7-7-5------------|
E--7----------------7-7-7-7-5-5-------7-7-7-7-5-5------------|

E---------------------------------------| 
B---------------------------------------| 
G-------7-5-9-------------------7-------| 
D--9----7-5-9------9-9-9-9-7-7-9--------| 
A--9----5-3-7------9-9-9-9-7-5-9--------| 
E--7-----------------7-7-7-7-5---7------| 

E--------------------| 
B--------------------| 
G--------------------| 
D--9-7-5-----7-9-----|
A--9-7-5-----7-9-----| 
E--7-5-3-----5-7-----| x3

E-------------------------------------| 
B-------------------------------------| 
G-------------------------------------| 
D--9-7-5------7-12-12-12-12-12--| 
A--9-7-5------7-12-12-12-12-12--| 
E--7-5-3------5-10-10-10-10-10--| 

Repeat: 
VERSE ("now I'm standing here")
BRIDGE thingy
CHORUS 
Then ring out on this chord...

E--------| 
B--------| 
G--------| 
D--12----| 
A--12----| 
E--10----| 

 A wackeddog Production





Comments


Popular Mad Caddies tabs & chords
Days Away Bass Tabs
Road Rash 2 Bass Tabs
The Joust 1 Bass Tabs
Destro Chords
Last Breath Tabs
Preppie Girl Tabs
Sad Reggie Tabs
The Joust Tabs
Youth Gone Wild Tabs
Betty Ukulele


Song lyrics



↑ Back to top | Tablatures and chords are parodies/interpretations of the original songs. You may use it for private study, scholarship, research or language learning purposes only
© 2014 AZChords.com Contact us | Privacy policy | DMCA | Add/correct tabs | Request tabs | Top 50 tabs