» » »

Distress Tabs (ver.1)

Artists:  A B C D E F G H I J K L M N O P Q R S T U V W X Y Z # 

Distress Tabs (ver.1)

Mad Caddies
Rating:
4/5 (1 vote)

Hard to play? Try these video lessons and learn fast.
                -----------------------------------------------------------------------
-----------------------------------------------------------------------

Intro
e-----------------------------------------------|
b-----------------------------------------------|
g------------6-7--------------6-7-99-7----------|
d---4-5--7-7---------4-5--7-7-------------------|
a-/5--------------/5----------------------------|
E-----------------------------------------------|

Intro (continued)
e-----------------------------------------------|
b-----------------------------------------------|
g------------6-7--------------------------------|
d---4-5--7-7---------4-5--7-7-5-4-0-------------|
a-/5--------------/5----------------------------|
E-----------------------------------------------|

Verse, chorus, Interlude
e-5-x-5-x-5-x-5-x-5-x-5-x-5-x-5-x-2-x-2-x-2-x-2-x-3-x-3-x-3-x-3---|
b-7-x-7-x-7-x-7-x-5-x-5-x-5-x-5-x-4-x-4-x-4-x-4-x-3-x-3-x-3-x-3---|
g-7-x-7-x-7-x-7-x-6-x-6-x-6-x-6-x-4-x-4-x-4-x-4-x-4-x-4-x-4-x-4---|
d-7-x-7-x-7-x-7-x-7-x-7-x-7-x-7-x-4-x-4-x-4-x-4-x-5-x-5-x-5-x-5---|
a-----------------7-x-7-x-7-x-7-------------------5-x-5-x-5-x-5---|
E-----------------------------------------------------------------|

Second Intro
e-----------------------------------------------|
b-----------------------------------------------|
g------------6-7--------------6-7-99-7----------|
d---4-5--7-7---------4-5--7-7-------------------|
a-/5--------------/5----------------------------|
E-----------------------------------------------|

Second Intro (continued)
e--------------------------------------|
b--------------6-7---------------------|
g-----2-4--6-6-6-7----2-4--6-6-4-2-----|
d--/4-4-5--7-7-----/4-4-5--7-7-5-5-4---|
a--/5--------------/5-------------5----|
E--------------------------------------|

Bass Interlude
G-----------------------------------------------------|
D--------7-5-4----------------------------------------|
A--5-5--5------5---44-55-77-------9-7-6------22-33-55-|
E----------------55---------7-7--7-----7\-33----------|

Verse and Chorus
G-------------------------------------------------------------------|
D------4---7-7-5-4--------------------------------------------------|
A--5-5---5-------------4---7-5-4-------6---9-9-7-6-----5---3---2----|
E-------------------5-5---5------5-7-7---7---------3-3---3---3---3--|


A wackeddog Production
=====================================================================
            
Hard to play? Try these video lessons and learn fast. | Correct




comments powered by Disqus
↑ Back to top | Tablatures and chords are parodies/interpretations of the original songs. You may use it for private study, scholarship, research or language learning purposes only