>
 >
Depleted Salvo

Depleted Salvo Guitar Tabs

Mad Caddies - Depleted Salvo chords, tabs, tablatures, lyrics

Guitar lessons | Add/correct | Request | Top 50 tabs Artists:  A B C D E F G H I J K L M N O P Q R S T U V W X Y Z 0-9

Depleted Salvo Guitar Tabs – Mad Caddies

CD, Sheet music, Poster

Do you like Depleted Salvo? Share with your friends now
Tabs
Band- MAD CADDIES
Song- DEPLETED SALVO
Album- Rock the Plank

not a hard song just pay attention

intro R-ring ^ stacatto(short) *-play a few times according to the rhythm
<0 sec.>
E----------------
B----------------
G--R--^----------
D--9--9----X3----
A--9--9----------
E--7--7----------

PRE-VERSE
<16 sec. > 
E--------------------------  
B--------*-----------------  
G--*--*--7--*--*--*--------  
D--9--5--7--9--7--5----X3--  
A--9--5--5--9--7--5--------  
E--7--3-----7--5--3--------  

<32 sec.>
E----
B----
G--*-
D--4-
A--4-
E--2-

VERSE
<34 sec. >  1st guitar + 2nd guitar             <45 sec.>   2nd guitar
E-------------------------------------------| E---------------|-------------------
B-------------------------------------------| B---------------|---do one time in--
G-------------------------(fill)------------| G-^---slur---^-^|---each bar-for 3--
D--9999--8666--4444-444----222-------X4-----| D-9---9-10---9-9|---bars and then --
A--9999--8666--4444-444----222--------------| A---------------|---none in the 4th-
E--7777--6666--2222-222----000--------------| E---------------|---bar-------------

CHORUS
<57 sec. >                1st ending      2nd ending
E-----------------------|----------------|----------|
B-----------*-----------|----------------|----------|
G--*--*--*--7--*--*--*--|-9--7--5--7--5--|----*-----|
D--9--5--7--7--9--5--7--|-9--7--5--7--5--|----8-----|
A--9--5--7--5--9--5--7--|-7--5--3--5--3--|----8-----|
E--7--3--5-----7--3--5--|----------------|----6-----|

<1min 18sec> PRE-VERSE
<1min 30sec> VERSE
<1min 52sec> CHORUS

BRIDGE
<2min 13sec>
E--------------------------|-------(with palm muting)------------------------------------------
B--------------------------|-------------------------------------------------------------------
G--------------------------|--^^^^--^^^^--^^^^--^^-slur--slur--^^^^--^^^^----------------------
D--9--8--5--4--9--8--12-12-|--9999--8888--5555--44-5--4--5--4--9999--8888--12------------------
A--9--8--5--4--9--8--12-12-|--9999--8888--5555--44-5--4--5--4--9999--8888--12--play the D a----
E--7--6--3--2--7--6--10-10-|--7777--6666--3333--22-3--2--3--2--7777--6666--10--bunch of times--

<2min 35sec> CHORUS

ENDING
<2min 56sec> 
E----------------------|
B--(slide downwards)---|
G----------------------|
D--9/------------------|
A--9/------------------|
E--7/------------------|





Comments


Popular Mad Caddies tabs & chords
Distress 1 Bass Tabs
Goleta Bass Tabs
Polyester Khakis Bass Tabs
Preppy Girl 1 Bass Tabs
Watcha Gonna Do Chords
10 West Tabs
Bridges Tabs
Hound Bound Tabs
Leavin' Tabs
The Gentleman Tabs


Song lyrics



↑ Back to top | Tablatures and chords are parodies/interpretations of the original songs. You may use it for private study, scholarship, research or language learning purposes only
© 2014 AZChords.com Contact us | Privacy policy | DMCA | Add/correct tabs | Request tabs | Top 50 tabs