» » »

Mad Caddies, Big Brother Tabs (ver.1)

Artists:  A B C D E F G H I J K L M N O P Q R S T U V W X Y Z # 

Big Brother Tabs (ver.1)

Mad Caddies Tabs
 Rating:
4/5 (4 votes)
Big Brother lessons Tabs too difficult? Try these video lessons and learn fast
1
                Tuning: Standerd

Intro with Trumpet

ska rythm
   Dm
e|-5-|
B|-6-|
G|-7-|
D|-7-|
A|-5-|
E|---|

Intro fast strumming part

All palm muted except Part 3

/ = slide to

Order : Part 1 / Part 2 / Part 1 / Part 3

   /--------Part 1--------\ /-----Part 2-----\ /------Part 3------\
e|------------------------|------------------|--------------------|
B|------------------------|------------------|-8-8-8-8--7-7-------|
G|------------------------|------------------|--------------8-8-7-|
D|----5-7-8-7-5---7---7---|---5-7-8-7-5/10-8-|--------------------|
A|--8-----------8---7---5-|-8----------------|--------------------|
E|------------------------|------------------|--------------------|

Pre-Verse (fast with trumpet)

ska rythm
   Dm
e|-5-|
B|-6-|
G|-7-|
D|-7-|
A|-5-|
E|---|

Verse

ska rythm
   Dm      F      Dm  F    C     Dm
e|-5------8------5---8----8-----10--------|
B|-6------10-----6---10---8-----10--------|
G|-7------10-----7---10---9-----10--------|
D|-7------10-----7---10---10----12--------|
A|-5------8------5---8----10----12--------|
E|------------------------8-----10--------|

ska rythm with dist.

   D5      F5     G5      A5
e|--------------------------|
B|--------------------------|
G|-7------------------------|
D|-7------3------5-------7--|
A|-5------3------5-------7--|
E|--------1------3-------5--|

--==Bridge==--

   D5  C5 F5 E5  G5 D5  >A5<------A5 on second time only
e|--------------------|---|
B|--------------------|---|
G|-7--5------------7--|---|
D|-7--5--3--2---5--7--|-7-|
A|-5--3--3--2---5--5--|-7-|
E|-------1--0---3-----|-5-|


Slow ska break Down

ska rythm

Chorus

¤ = bemol

   F5  C5  D5  A5   A5    A5  B¤5   A
e|---------------------------------5--|
B|---------------------------------5--|
G|----5---7------------------------6--|
D|-3--5---7---7----7------7---8----7--|
A|-3--3---5---7----5------7---8----7--|
E|-1----------5----5------5---6----5--|

itz a pretty simple song... basically just power chords and a kool riff.
my address is 
            
Submit corrections

comments powered by Disqus
↑ Back to top | Mad Caddies Tabs for Big Brother. Lyrics for acoustic guitar and electric guitar. 1 Tablatures and chords are parodies/interpretations of the original songs. You may use it for private study, scholarship, research or language learning purposes only