» » »

Mac Miller, Loud Tabs (ver.1)

Artists:  A B C D E F G H I J K L M N O P Q R S T U V W X Y Z # 

Loud Tabs (ver.1)

Mac Miller Tabs
Rating:
0/5 (0 votes)
Loud lessons Tabs too difficult? Try these video lessons and learn fast
                -------------------------------------------------------------------------------
-------------------------------------------------------------------------------

Tuning: Standard EADGBe

Off the Macadellic Mixtape
thumbs up~~most dope


  the very first part of the song is played 4 times like this:
e|--------9---12-------12---9-------9---12--------10-9-------|
B|-----------------8------------7----------------------10----|
G|----10-------------------------------------10--------------|
D|-----------------------------------------------------------|
A|-----------------------------------------------------------|
E|-----------------------------------------------------------|




the rest of the song is like this, played somewhat fast.
not sure what effects you could put on to make it sound like the track. i tried some 
reverb, delay and a phaser and it didnt sound bad.

e|---9---0---8---0-------0---8---0---9---0---8---0---11---0---8---0----------|
B|-------------------9-------------------------------------------------------|
G|---------------------------------------------------------------------------|
D|---------------------------------------------------------------------------|
A|---------------------------------------------------------------------------|
E|---------------------------------------------------------------------------|


questions ht me up at @The_Real_ZachLP

************************************
            

comments powered by Disqus
↑ Back to top | Mac Miller Tabs for Loud. Lyrics for acoustic guitar and electric guitar. Tablatures and chords are parodies/interpretations of the original songs. You may use it for private study, scholarship, research or language learning purposes only