» » »

Wear My Hat Bass tabs (ver.1)

Artists:  A B C D E F G H I J K L M N O P Q R S T U V W X Y Z # 

Wear My Hat Bass tabs (ver.1)

Mac Miller
Rating:
5/5 (2 votes)

Hard to play? Try these video lessons and learn fast.
                figured this out finally,   any corrections please comment.  :)
h- hammer on.   p-pull off.

G----------------------------|
D------6h8--8h98h9-----------|
A---6h9----------------------|
E----------------------------|   (x2)
then..
G----------------------------|
D------6h8--8-6--------------|
A---6h9----------------------|
E----------------------------|   (x2)
thats the first "riff"
then..
G---8-----6-6---------------------------------|
D--------------6-8------------9p8------9p8----|
A------------------------6h9-------6h9--------|
E---------------------------------------------|
and lastly..
G---8-----6-6---------------|
D--------------6-8----------|
A---------------------------|
E---------------------------|

those are your riffs,  just put the song together!
            
Hard to play? Try these video lessons and learn fast. | Correct




comments powered by Disqus
↑ Back to top | Tablatures and chords are parodies/interpretations of the original songs. You may use it for private study, scholarship, research or language learning purposes only