>
 >
Now I Lay Thee Down 4

Now I Lay Thee Down 4 Guitar Tabs

Machine Head - Now I Lay Thee Down 4 chords, tabs, tablatures, lyrics

Guitar lessons | Add/correct | Request | Top 50 tabs Artists:  A B C D E F G H I J K L M N O P Q R S T U V W X Y Z 0-9

Now I Lay Thee Down 4 Guitar Tabs – Machine Head

CD, Sheet music, Poster

Do you like Now I Lay Thee Down 4? Share with your friends now
Bass TabsTabsTabs v2Tabs v3Tabs v4
Machine Head - Now I Lay Thee Down solo

Tuning = Drop B

h   - hammer-on
p   - pull-off
b   - bend
tremolo  - tremolo picking
~   - vibrato
/   - slide
PH  - artificial harmonic


I admit I got help tabbing this solo from my guitar teacher and hes a great guitarist so 
is very accurate and it sound right when I play it.

e[--------------------]-------------------]-------------------]
B[--------------------]-------------------]-------------------]
G[-14p10----14p10-----]-14p10----14p10----]-15p10----14p10----]
D[-------12-------12--]-------12-------12-]-------12-------12-]
A[--------------------]-------------------]-------------------]
E[--------------------]-------------------]-------------------]

e[-------------------]--------------]--------------------------]
B[-13p10----13p10----]--13b~~~~-----]-10h13p10----10h13p10-----]
G[-------10-------10-]--------------]----------12-----------12-]
D[-------------------]--------------]--------------------------]
A[-------------------]--------------]--------------------------]
E[-------------------]--------------]--------------------------]

e[-----------------------------------]-------------------]-------------------|
B[-10b-------------------------------]-------------------]-------------------|
G[-10b--12p10----10p0----------------]-14p10----14p10----]-14p10----14p10----|
D[------------12------12p0-10p0------]-------12-------12-]-------12------12--|
A[-----------------------------10PH~-]-------------------]-------------------|
E[-----------------------------------]-------------------]-------------------|

e[-------------------]-------------------]------15tremolo---------------]
B[-------------------]-13p10----13p10----]------------------------------]
G[-15p10----14p10----]-------10-------10-]------------------------------]
D[-------12-------12-]-------------------]------------------------------]
A[-------------------]-------------------]------------------------------]
E[-------------------]-------------------]------------------------------]

e[--13tremolo----12tremolo----13tremolo-]--15tremolo--13tremolo--12tremolo-]
B[--------------------------------------]----------------------------------]
G[--------------------------------------]----------------------------------]
D[--------------------------------------]----------------------------------]
A[--------------------------------------]----------------------------------]
E[--------------------------------------]----------------------------------]

e[-------------------]-------------------]--------------------]
B[-------------------]-------------------]--------------------]
G[-14p10----14p10----]-14p10----14p10----]-15p10----13p10-----]
D[-------12-------12-]-------12-------12-]-------12-------10--]
A[-------------------]-------------------]--------------------]
E[-------------------]-------------------]--------------------]

e[-------------------]----------------]------------------]
B[-13p10----13p10----]----------------]------------------]
G[-------10-------10-]-9h10p9h10p9----]-9h10p9h10/12/10--]
D[-------------------]-------------12-]------------------]
A[-------------------]----------------]------------------]
E[-------------------]----------------]------------------]

e[----------------]------------------]--------------------]
B[----------------]-10---------------]--------------------]
G[-9h10p9h10p9----]----12p10p9-------]--14p10----14p10----]
D[-------------12-]------------12p10-]--------12-------12-]
A[----------------]------------------]--------------------]
E[----------------]------------------]--------------------]

e[-------------------]--------------------]-----------------]
B[-------------------]--------------------]-----------------]
G[-14p10----14p10----]-15p10----14p10-----]-12p9----12p9----]
D[-------12-------12-]-------12-------12--]------10------10-]
A[-------------------]--------------------]-----------------]
E[-------------------]--------------------]-----------------]

e[----------------]----------------]---11-----]--11-----]---11-----]
B[----------------]----------------]---14b~~--]--14b~~--]---14b~~--]
G[--10p7---10p7---]--10p7---10p7---]----------]---------]----------]
D[-------8------8-]-------8------8-]----------]---------]----------]
A[----------------]----------------]----------]---------]----------]
E[----------------]----------------]----------]---------]----------]

e[---13-----]---15-----]---15-----]---18-----]
B[---16b~~--]---18b~~--]---18b~~--]---21b~~--]
G[----------]----------]----------]----------]
D[----------]----------]----------]----------]
A[----------]----------]----------]----------]
E[----------]----------]----------]----------]

Please Comment!!





Comments


Popular Machine Head tabs & chords
Be Still And Know Bass Tabs
Bulldozer Bass Tabs
The Blood Sweat Tears 2 Bass Tabs
Imperium Drum Tabs
Buring Red Tabs
Clenching The Fists Of Dissent Tabs
Crashing Around You 1 Tabs
Davidian 1 Tabs
Devil With The King's Card Tabs
Exhale The Vile 1 Tabs


Song lyrics



↑ Back to top | Tablatures and chords are parodies/interpretations of the original songs. You may use it for private study, scholarship, research or language learning purposes only
© 2014 AZChords.com Contact us | Privacy policy | DMCA | Add/correct tabs | Request tabs | Top 50 tabs