» » »

Machine Head, Devil Withthe Kings Card Bass tabs (ver.1)

Artists:  A B C D E F G H I J K L M N O P Q R S T U V W X Y Z # 

Devil Withthe Kings Card Bass tabs (ver.1)

Machine Head Tabs
 Rating:
4/5 (4 votes)
Devil Withthe Kings Card lessons Tabs too difficult? Try these video lessons and learn fast
1
                Machine Head
Devil with the King’s card
The Burning red

Tuning: standard 5 string (B, E, A, D, G)


Intro: x1

|----------------------------------|                                                 |----------------------------------|
|----------------------------------|
|----------------------------------|
|-6-6-6-6-6-6-6-6-6-6-6-6----------|


Main Riff: x2

|-----------------------|-----|-----|--------------------|
|-----------------------|-----|-----|--------------------|
|-----------------------|-----|-----|--------------------|
|-----------------------|-----|-----|--------------------|
|-222---222--2h3p2--222-|-----|-----|-222---222—-2111111-|


Post main riff: x1

|-----------------------------|-----|-----| 
|-----------------------------|-----|-----| 
|-----------------------------|-----|-----| 
|-----------------------------|-----|-----| 
|-------------------------15^-|-----|-----|
|-7-7-7-7-7-7-7-7-7-7-7-7-----|-----|-----|

|-----------------------------------|
|-----------------------------------|
|-----------------------------------|
|-----------------------------------|
|-7-7-7-7-7-7-7-7--7-1-1-1-1-1-1-1--|

 
Verse: x2

|------------------------------------------|-----|-----|
|------------------------------------------|-----|-----|
|------------------------------------------|-----|-----|
|------------------------------------------|-----|-----|
|-----------------------------15-15-15-15--|-----|-----|
|-7-7-7-----7-7-7-----7-7-7----------------|-----|-----|

|-------------------------------------|
|-------------------------------------|
|-------------------------------------|
|-------------------------------------|
|-7-7-7-----7-7-7----7-1-1-1-1-1-1-1--| 

Main riff: x1

Post main riff (miss of two bars): x1

Verse: x2

 
Chorus: x7
 
|---------------------------------|
|---------------------------------|
|---------------------------------|
|---------------------------------|
|-0/2-2-2-2/3-3-3-3/5-5-5-5/6-6-6-|


Interlude:
 
|---------------|-----|-----|-----|-----|-----|-----|-----|
|---------------|-----|-----|-----|-----|-----|-----|-----|
|---------------|-----|-----|-----|-----|-----|-----|-----|               
|-9~~~~~~~~~~~6-|-----|-----|-----|-----|-----|-----|-----|
|---------------|-----|-----|-----|-----|-----|-----|-----|

|------------------|-----|-----|-----|-----|-----|-----|-----|
|------------------|-----|-----|-----|-----|-----|-----|-----|
|------------------|-----|-----|-----|-----|-----|-----|-----|
|------------------|-----|-----|-----|-----|-----|-----|-----|
|--2-2-2-2-2-2-2-2-|-----|-----|-----|-----|-----|-----|-----|

(long build up)

|-----------------|-----|-----|-----|-----|-----|-----|
|-----------------|-----|-----|-----|-----|-----|-----|
|-----------------|-----|-----|-----|-----|-----|-----|
|-----------------|-----|-----|-----|-----|-----|-----|
|-----------------|-----|-----|-----|-----|-----|-----|
|-2-1-0----3-2-1--|-----|-----|-----|-----|-----|-----|



|-----------------|
|-----------------|
|-----------------|
|-----------------|
|-2-1-1-1-1-1-1-1-|

Main riff: x1

Chorus: x4

Thankyou please rate
            
Submit corrections

comments powered by Disqus
↑ Back to top | Machine Head Bass for Devil Withthe Kings Card. Lyrics for acoustic guitar and electric guitar. 1 Tablatures and chords are parodies/interpretations of the original songs. You may use it for private study, scholarship, research or language learning purposes only