» » »

Desire To Fire Bass tabs (ver.1)

Artists:  A B C D E F G H I J K L M N O P Q R S T U V W X Y Z # 

Desire To Fire Bass tabs (ver.1)

Machine Head
Rating:
0/5 (0 votes)

Hard to play? Try these video lessons and learn fast.
                
This is one of the standout tracks from the bands 1999 album the 
burning red love it or hate it this is one of the best tracks on it.

intro :

|------------------------
|------------------------     x 3
|------------------------
|---0-5-5-0-5-5-0-5-0~---

chorus :

|----------------------------------------------------------------
|----------------------------------------------------------------     x 1
|----------------------------------------------------------------
|---0-1-4-0-1-4--0-1-4-0-1-4--0-1-4-0-1-4--0-1-4-0-5-5-0-5-5-0-5-

chorus     x 2

verse :

|-------------------
|-------------------     x 8
|-------------------
|---1-0-0-1/12-12\1-

pre chorus :

|----------------------------
|----------------------------    x 1
|----------------------------
|---4-4-4-4-5-5-5-5-4-4-4-4-5

chorus     x 2

verse     x 8

pre chorus     x 2

chorus     x 2

slide :

|--------
|--------    x 1
|--------
|---12\1-

bridge :

|---------------
|---------------     x 16
|---------------
|---2h1-1-4h2---

bridge 2(chew and spit you out) :

|--------------------                |------------
|--------------------     x 4       |------------     x 2
|--------------------                |------------
|---0-0-0-0--0-0-0-0-              |---0-0---0-0

alternate first verse(sliding part) :

|-------------
|-------------    x 9 
|-------------
|---1/12-12\1-

chorus     x 4

Thats it, theres a lot of slides in this song so dont wreck your fingers too 
badly ,also on the last 2 chorus' it sounds like the notes are being played 
more but it is just dave mclains amazing drumming,good luck.
            
Hard to play? Try these video lessons and learn fast. | Correct




comments powered by Disqus
↑ Back to top | Tablatures and chords are parodies/interpretations of the original songs. You may use it for private study, scholarship, research or language learning purposes only