» » »

Machine Head, Crashing Around Me Tabs (ver.1)

Artists:  A B C D E F G H I J K L M N O P Q R S T U V W X Y Z # 

Crashing Around Me Tabs (ver.1)

Machine Head Tabs
 Rating:
4/5 (4 votes)
Crashing Around Me lessons Tabs too difficult? Try these video lessons and learn fast
1
                THIS TAB IS NOWHERE ELSE ON THE INTERNET OR CONTAINED IN ANY TAB BOOKS
I SEARCHED FOR HOURS TRYING TO FIND IT, SO HERE U ARE LUCKY PEEPS :D
TOOK ME ABOUT 30 MINS TO FIGURE IT ALL OUT PERFECT - WELL 99%
 (IT SOUNDS PERFECT BUT THERE MAY BE 1 NOTE OR CHORD MISSING BUT IT DOESN'T MATTER)


Intro/Verse:
	
	e-------------------
	b-------------------
	g-------------------
	d-99-99-99-99-9109--   <---- 10's not 1's
	a-99-99-99-99-9109--              "
	E-77-77-77-77-7-87--  
	

Chorus:
        e-----------------------------------
	b-----------------------------------
	g-11-9-7-12-11-9-11-9-7-7-6-4-------
	d-----------------------------------
	a--9-7-5-10--9-7--9-7-5-5-4-2-------
	E-----------------------------------
	   | | |
        Your 
           world 
             comes....
          *
	  |	  
	  |
          |  
Begining of each word is played with the corresponding chord/note




for the bit 3/4 of the way through the end just use this first chord and strum that a bit ..it sounds right to me

	e---------------
	b---------------
	g-9-------------
	d-9-------------
	E-7-------------

p.s. This is my first tab, i have beeen playing guitar for 3 yrs
            
Submit corrections

comments powered by Disqus
↑ Back to top | Machine Head Tabs for Crashing Around Me. Lyrics for acoustic guitar and electric guitar. 1 Tablatures and chords are parodies/interpretations of the original songs. You may use it for private study, scholarship, research or language learning purposes only