» » »

Machine Gun Fellatio, Unsent Letters Bass tabs (ver.2)

Artists:  A B C D E F G H I J K L M N O P Q R S T U V W X Y Z # 

Unsent Letters Bass tabs (ver.2)

Machine Gun Fellatio Tabs
Rating:
0/5 (0 votes)
Unsent Letters lessons Tabs too difficult? Try these video lessons and learn fast
                
Machine Gun Fellatio - Unsent Letter


Very basic tab!

INTRO:
G||-------------------------------||-----------------||
D||-------------------------------||*---------------*||
A||-------------------------------||*---------------*||
E||---(8)-----(8)----(6)----(8)---||---(6)-----(8)---||

G|---------------|-----------------------------|
D|---------------|-10-10-------8h10------------|
A|---------------|----------10------10---------|
E|---(8)---------|---------------------8----8\-|

CHORUS:

G||----------------------------------------||
D||*--------------------------------------*||
A||*-6-6---XX-8-8---XX--------------------*||
E||--------------------8-8-----XX-4---4-4--||

G|----------------------------------|
D|----------------------------------|
A|-6-6-6-6-8-8-8-XX-----------------|
E|------------------8-8-8-8-8-8-8-8-|

VERSE:

G|-----------------|-----------------|-----------------|--------------------|
D|-----------------|-----------------|-----------------|--------------------|
A|-----------------|-----------------|-----------------|--------6h8h9-9-9-9-|
E|-6-6-6-6-6-6-6-6-|-8-8-8-8-8-8-8-8-|-6-6-6-6-6-6-6-6-|-8-8-8--------------|


G|-------------------|-----------------|
D|-------------------|-----------------|
A|-10-10-10\---------|-----------------|
E|-----------6-6-6-6-|-8-8-8-8-8-8-8-8-|

G|------------------|-----------------------------|
D|--------8-8-8-8-8-|-10-10-------8h10------------|
A|------------------|----------10------10---------|
E|-6-6-6-6-6--------|---------------------8----8\-|

CHORUS x1

VERSE x1, minus last slide (let C note hang instead)

INTERLUDE:

G|----------------||-------------------|--------------------||
D|----------------||*------------------|-------------------*||
A|----------------||*------------------|-------------------*||
E|-(8)-----(8)----||-8-8-8-8-8-8-8-8-7-|-6-6-6-6-6-6-6-6-7--||


G|-----------------------------|
D|-10-10-------8h10------------|
A|----------10------10---------|
E|---------------------8----8\-|

CHORUS xlots

==========================================================================
            

comments powered by Disqus
↑ Back to top | Machine Gun Fellatio Bass for Unsent Letters. Lyrics for acoustic guitar and electric guitar. Tablatures and chords are parodies/interpretations of the original songs. You may use it for private study, scholarship, research or language learning purposes only