» » »

Machinae Supremacy, Sidstyler Tabs (ver.2)

Artists:  A B C D E F G H I J K L M N O P Q R S T U V W X Y Z # 

Sidstyler Tabs (ver.2)

Machinae Supremacy Tabs
 Rating:
4/5 (4 votes)
Sidstyler lessons Tabs too difficult? Try these video lessons and learn fast
1
                ==================================
            Sidstlyer
     Machinimae Supremacy
==================================

Love this song. I was up till like 2am tabbing this for a mate
because he loves it too and it was his birthday the day after :)
And because I hadn't gotten him a present at the time.
Anyway, hope you like, I think it's pretty close :)

Enjoy! :D

parts are played differently to the what my tab says, but I play the parts the way shown
because it will probably contribute to my sweep picking ability or something. I believe 
there are several other tabs up, so if you don't like the way I play it then go and look
at another tab :)

***
Standard Tuning
2 Guitars

h   = hammer on
p   = pull off
/   = slide up
\   = slide down
b   = bend
pb  = pre-bend (bend and THEN pick)
=   = sustain bend (so you can pick the note again, for example)
r   = release note
~   = vibrato
(#) = sustain note
<#> = pinch harmonic (you work out what part of the string)
[#] = harmonic over the fret
PM  = palm mute
x   = deadened not
#x  = deaden note after picking it

***

Intro
Part 1
Guitar 1
e--15----15----15----14----14-----------------------------------------|
b----17----17----17----17----17---15----15----15----17----17----17----|
g------16----16----16----16----16---17----17----17----19----19----19--|
d-------------------------------------17----17----17----19----19------|
a---------------------------------------------------------------------|
e---------------------------------------------------------------------|

e--15----15----15----14----14-----------------------------------------------|
b----17----17----17----17----17---15----15----15----17----17----17----------|
g------16----16----16----16----16---17----17----17----19----19----19-14b16--|
d-------------------------------------17----17----17----19----19------------|
a---------------------------------------------------------------------------|
e---------------------------------------------------------------------------|

Guitar 2
e-----------------------------------------------------------|
b-----------------------------------------------------------|
g--9x----------------5x-----------7x---7x---7----9-----(9)--|
d--9x----------------5x-----------7x---7x---7----9-----(9)--|
a--7x----------------3x-----------5x---5x---5----7-----(7)--|
e-----------------------------------------------------------|

e------------------------------------------------------|
b------------------------------------------------------|
g--------------------------------------------------4x--|
d--5-5-5-5-5-5-5-5-7-7-7-7-7-7-7-7-4-4-4-4-4-4-4-4-4x--|
a--3-3-3-3-3-3-3-3-5-5-5-5-5-5-5-5-2-2-2-2-2-2-2-2-2x--|
e------------------------------------------------------|
PM . . . . . . . . . . . . . . . . . . . . . . . .

*

Part 2
Guitar 1
e---------------------------------------------------------------------|
b--8-----8-----8-----7-----7-----3-----3-----3-----5-----5-----5------|
g----9-----9-----9-----9-----9-----5-----5-----5-----7-----7-----7----|
d------9-----9-----9-----9-----9-----5-----5-----5-----7-----7-----7--|
a---------------------------------------------------------------------|
e---------------------------------------------------------------------|

e----------------------------------------------------------------------|
b--8h10---8-----8-----7-----7-----3-----3-----3-----5-----5-----5------|
g-----------9-----9-----9-----9-----5-----5-----5-----7-----7-----7----|
d-------9-----9-----9-----9-----9-----5-----5-----5-----7-----7-----7--|
a----------------------------------------------------------------------|
e----------------------------------------------------------------------|

e----------------------------------------------------------------------|
b--8h10---8-----8-----7-----7-----3-----3-----3-----5-----5-----5------|
g-----------9-----9-----9-----9-----5-----5-----5-----7-----7-----7----|
d-------9-----9-----9-----9-----9-----5-----5-----5-----7-----7-----7--|
a----------------------------------------------------------------------|
e----------------------------------------------------------------------|

e----------------------------------------------------------------------|
b--8h10---8-----8-----7-----7-----3-----3-----3-----5-----5-----5------|
g-----------9-----9-----9-----9-----5-----5-----5-----7-----7-----7----|
d-------9-----9-----9-----9-----9-----5-----5-----5-----7-----7-----7--|
a----------------------------------------------------------------------|
e----------------------------------------------------------------------|

Guitar 2
e---------------------------------------|
b---------------------------------------|
g--99999999999999999-55555555-77777777--|
d--99999999999999999-55555555-77777777--|
a--77777777777777777-33333333-55555555--|
e---------------------------------------| x4

*

Part 3
Guitar 1
e-----------------------------------|
b--8h10---8-----8-----8-----8-------|
g-----------9-----9-----9-----9-----|
d-------9-----9-----9-----9-----9\--|
a-----------------------------------|
e-----------------------------------|

Then both guitars
e--------------------------------|
b--------------------------------|
g--------------------------------|
d--------------------------------|
a------5-----7-----8-----9---9~--|
e--0-0-3-0-0-5-0-0-6-0-0-7-0-7~--|
PM . .   . .   . .   . .   .

***

Verse
Both guitars (It generally revolves around this, with a few changes here and there)
e----------------------------------------------------------|
b----------------------------------------------------------|
g----------------------------------------------------------|
d----------------------------------------------------------|
a------7-5h7-----5h7--4/5---7\5------7-5h7---5/7-10-9-7-5--|
e--0-0-------000------2/3-0-5\3--0-0-------0---------------|
PM . .       ...          .      . .       .

*

Pre-chorus
e------------|
b------------|
g------------|
d---------4--|
a---------2--|
e-0-2-3-5----|

***

Chorus
Guitar 1
e---------------------------------------------------------------------|
b--8-----8-----8-----7-----7-----3-----3-----3-----5-----5-----5------|
g----9-----9-----9-----9-----9-----5-----5-----5-----7-----7-----7----|
d------9-----9-----9-----9-----9-----5-----5-----5-----7-----7-----7--|
a---------------------------------------------------------------------|
e---------------------------------------------------------------------| x3

e----------------------------------------|
b--8-----8-----8-----7-----7-------------|
g----9-----9-----9-----9-----9----2b4~~--|
d------9-----9-----9-----9-----9---------|
a----------------------------------------|
e----------------------------------------|

Guitar 2
e---------------------------------------|
b---------------------------------------|
g--99999999999999999-55555555-77777777--|
d--99999999999999999-55555555-77777777--|
a--77777777777777777-33333333-55555555--|
e---------------------------------------| x3

e--------------------------------|
b--------------------------------|
g--------------------------------|
d--------------------------------|
a------5-----7-----8-----9---9~--|
e--0-0-3-0-0-5-0-0-6-0-0-7-0-7~--|
PM . .   . .   . .   . .   .

***

Bass bit. You can work it out.
Play Verse

***

Bridge To Solo (Pre-solo)
Note: I have a feeling that this part may provoke some controversy,
but it sounds pretty good played this way anyway, so make your own
mind up :)
e-------------7-------(7)----------14pb15r14-12---|
b-------------10b12===(12)------------------------|
g--9b11r9-7---------------------------------------|
d-----------9-------------------------------------|
a-------------------------------------------------|
e-------------------------------------------------|

e---------------------------------------------|
b--7-7-8p7-----10b12==(12)=====12r10p8---10---|
g-9--------9p7-9b11===(11)-------------9-9----|
d---------------------------------------------|
a---------------------------------------------|
e---------------------------------------------|


e---------------------------------------------------------------------------------------|
b-----8-8-8p7-----10b12===(12)------8-8-8p7-----10b12-----------------------------------|
g--/9---------9p7-9b11====(11)---/9---------9p7-9b11------------------------------------|
d---------------------------------------------------------------------------------------|
a---------------------------------------------------------------------------------------|
e---------------------------------------------------------------------------------------|


e---------------------------------------------------------------------------------------|
b------8-10pb12r10-8-10---10b11==11r10--------------------------------------------------|
g--/12---------------9----9b10===10r9---------------------------------------------------|
d---------------------------------------------------------------------------------------|
a---------------------------------------------------------------------------------------|
e---------------------------------------------------------------------------------------|

Guitar 2
e------------------------------------------------------|
b------------------------------------------------------|
g--9-------------9-------------7-----------------------|
d--9-------------9-------------7------------7----------|
a--7-------------7-------------5------------7----------|
e-------------------------------------------5----------| x3

***

Solo
Part 1
       |    x4     |
e--/14--15-14-15-12--15-14-12------------------------------------|
b-----------------------------15--------------------14b15r14-12--|
g---------------------------------------14----12-14--------------|
d-----------------------------------/14----14--------------------|
a----------------------------------------------------------------|
e----------------------------------------------------------------|

  |x4         |
e--15-14-15-12-15-/17-/19--21-21-19-17--------------------------------|
b--------------------------------------20-19-17-----------------------|
g-----------------------------------------------19-18-16--------------|
d--------------------------------------------------------19-17-16-----|
a-----------------------------------------------------------------19--|
e---------------------------------------------------------------------|

Something that helped me: If you can tap the rhythm on your lap, you
can alternate pick it. It's not as fast as it sounds at first ;)

Part 2
e---------------------------------------------------------------|
b------7-7h8p7--------------------------------------------------|
g--/9----------9-7-9-7---<7>------------------------------------|
d----------------------9-----9-7-9-7-<7>-<9>-<7>---------7-7h9--|
a------------------------------------------------10-7-10--------|
e---------------------------------------------------------------|

e-------------------------------7--10p7-------7--|
b-----------------------8-----8---------10p8-----|
g---------------7---7/9----/9--------------------|
d---------7h8h9----------------------------------|
a--7h9h10----------------------------------------|
e------------------------------------------------|

e--12p10p11-----------------------------------------|
b-----------12p10p8---------------------------------|
g-------------------11p9p7--------9p8p7-------------|
d--------------------------10p9p7-------9p8p7-------|
a----------------------------------------------8~~--|
e---------------------------------------------------|

Guitar 2 (same for both parts)
e-----------------------------------|
b-----------------------------------|
g--9-9-9-9-9-9-9-9-7-7-7-7----------|
d--9-9-9-9-9-9-9-9-7-7-7-7-7-7-7-7--|
a--7-7-7-7-7-7-7-7-5-5-5-5-7-7-7-7--|
e--------------------------5-5-5-5--| x4

***

Play chorus, Guitar 2 comes in bar 8 or so

***

Outro
Guitar 1
e--------------------------------------|
b--8-----9-----10-----12---------------|
g--10b12-11b13-12b14--14b16------------|
d-----------------------------------2--|
a-----------------------------------2--|
e-----------------------------------0--|

Guitar 2
e--------------------------------|
b--------------------------------|
g--------------------------------|
d--------------------------------|
a------5-----7-----8-----9---9~--|
e--0-0-3-0-0-5-0-0-6-0-0-7-0-7~--|
PM . .   . .   . .   . .   .


Don't forget to rate and comment ;)
            
Submit corrections

comments powered by Disqus
↑ Back to top | Machinae Supremacy Tabs for Sidstyler. Lyrics for acoustic guitar and electric guitar. 1 Tablatures and chords are parodies/interpretations of the original songs. You may use it for private study, scholarship, research or language learning purposes only