» » »

Love Left For Me Chords (ver.1)

Artists:  A B C D E F G H I J K L M N O P Q R S T U V W X Y Z # 

Love Left For Me Chords (ver.1)

M2m
Rating:
0/5 (0 votes)

Tabs too difficult? Try these video lessons and learn fast.
                  from the "The Big Room"

This is just for the first guitar.  Here is the closest that I can get.If you see mistakes 
on tabs & chords, just let me know.It is hard to figure out exactly how  Master Marit play 
this, you just have to listen to the CD and try this stuff.

G       320003
G/E     020003
C9      x32030
G/f#    220003
Em7     020000
G type2 320033
C       x32033
D       xx0232

Intro: (G,G/E) 2x

Verse 1:

 G   G/E    G                   G/E           C    G G/E                   
  You just said the worst thing you could ever say
 G     G/E      G            G/E                    C    
  Well, I don't understand why it just can't be this way
  G   G/f#              Em7
  I'm crying because of you 

Chorus:

 C   G2          C             D   C G2 
  I hate, yes I hate all your lies
 C         G2           C         D            C   G2
  I'm so scared and I fear what I see in your eyes
 C       G2          C          D              C   
  But I hope and I dream and I (wish?) and I pray
  G2         D              C        Riff 1
  That you have some love left for me
  G2      D              C
  Do you have some love left for me
 
Verse 2: (same)

Here is the tabs:

Riff 1

e------------|
b------------|
g------------|
d----------0-|
a-3h5-0--3---|
E------------|

Intro and some part of verses
 G              G/E
e----------------------3--------|
b-------0------------0------0---|
g-----0---0--------0------0---0-|
d---0-------0-------------------|
a-------------------------------|
E-3-----------3--0--------------|
    You...

  C9
e--------------------------0---------|
b--------3-----1---------3---3---1---|
g------o-----0---0-------------0---0-|
d----2----------------2--------------|
a--3----------------3----------------|
E------------------------------------|
   ...say

  G         G/f#      Em7
e-----------------------------0--------|-12---|
b--------0---------0--------0------0---|-12---|
g------0---------0--------0------0---0-|------|
d----0---------0-----------------------|------|
a--------------------------------------|------|
E--3---------2---------0---------------|------|
    I'm      crying ...you

Adlib:                            |------->ghost note
                                  | sl.    (do not strike)
e----------5--3~--2---------2--2-(2)/3--3|
b----1-3~------------5~--5---------------|repeat 2x more  
g----------------------------------------| except the first
d----------------------------------------| 3 notes
a--3-------------------------------------|
E----------------------------------------|


====> The girls really rock.  P.O.D drummer says that
      he got M2M CD on his player. (Where are the others?
      You should be helping me here :)
            
Tabs too difficult? Try these video lessons and learn fast.




comments powered by Disqus
↑ Back to top | Tablatures and chords are parodies/interpretations of the original songs. You may use it for private study, scholarship, research or language learning purposes only