>
 >
Sweet Home Alabama Intro 1

Sweet Home Alabama Intro 1 Guitar Tabs

Lynyrd Skynyrd - Sweet Home Alabama Intro 1 chords, tabs, tablatures, lyrics

Guitar lessons | Add/correct | Request | Top 50 tabs Artists:  A B C D E F G H I J K L M N O P Q R S T U V W X Y Z 0-9

Sweet Home Alabama Intro 1 Guitar Tabs – Lynyrd Skynyrd

CD, Sheet music, Poster

Do you like Sweet Home Alabama Intro 1? Share with your friends now
TabsTabs v2
Sweet Home Alabama

Lynyrd  Skynyrd 


* - PM
  
|------------------|------------------|------------------|
|-------3----------|--------3---------|-----------3------|
|-*--*-----2-------|-*---*-----0------|-----------0------|
|-0--0----------0--|-2p0h2------------|--*****----0------|
|------------------|-3p0h3--------3---|--2p0h2----2------|
|------------------|------------------|--3p0h3----3------|

|-----------------^-|
|-----------------^-|
|-------------2p0-^-|
|-----0h2p2-------^-|
|-0h2-------2-----^-|
|-----------------^-|
               over here
 		guitar 2           e----------------------
                 does this lick :  b-3~~~~~~/5~~\3~~~~~~~~
				   g----------------------
				   d----------------------
 			           a----------------------
 				   e----------------------			             

|------------------|------------------|------------------|
|-------3----------|--------3---------|-----------3------|
|-*--*-----2-------|-*---*-----0------|-----------0------|
|-0--0----------0--|-2p0h2------------|--*****----0------|
|------------------|-3p0h3--------3---|--2p0h2----2------|
|------------------|------------------|--3p0h3----3------|

|------------------------|
|------------------------|
|0-0-2p0-0-4h0-05p0-5b(7)|
|------------------------|
|------------------------|
|------------------------|

  Guitar 2 strums chords
  D                  Cadd9               G  
|------------------|------------------|------------------|
|-------3----------|--------3---------|-----------3------|
|-*--*-----2-------|-*---*-----0------|-----------0------|
|-0--0----------0--|-2p0h2------------|--*****----0------|
|------------------|-3p0h3--------3---|--2p0h2----2------|
|------------------|------------------|--3p0h3----3------|
  G
|-----------------^-|
|-----------------^-|
|-------------2p0-^-|
|-----0h2p2-------^-|
|-0h2-------2-----^-|





Comments


Popular Lynyrd Skynyrd tabs & chords
I Aint The One Bass Tabs
Comin Home Chords
Tuesday's Gone Chords
Was I Right Or Wrong 1 Chords
On The Hunt (Intro) Tabs
Simple Man Chorus Tabs
Sweet Home Alabama 2 Tabs
That Smell 2 Tabs
We Aint Much Different Tabs
Workin For Mca 1 Tabs


Song lyrics



↑ Back to top | Tablatures and chords are parodies/interpretations of the original songs. You may use it for private study, scholarship, research or language learning purposes only
© 2014 AZChords.com Contact us | Privacy policy | DMCA | Add/correct tabs | Request tabs | Top 50 tabs