» » »

Lynyrd Skynyrd, Georgia Peaches Tabs (ver.1)

Artists:  A B C D E F G H I J K L M N O P Q R S T U V W X Y Z # 

Georgia Peaches Tabs (ver.1)

Lynyrd Skynyrd Tabs
 Rating:
4/5 (4 votes)
Georgia Peaches lessons Tabs too difficult? Try these video lessons and learn fast
1
                Here Is the way I play Georgia peaches by Lynyrd Skynyrd. I was trying to find a better
myself but all thats been posted are the chords which only kind of match to the song. So
you go heres them funny talkin' Georgia Peaches.



Band: Lynyrd Skynyrd


h-Hammer to next note
b-Bend to your own content
bd-Bend down
/-Slide up or down
TAI-Thats about it. No confusing lettering system that uses a to z.


Intro: (Oh so Twangy)
e-3---3--3--3--------3-----------------------|
b-3---3h-6--3---3----3-----------------------|
g---------------3h-5-3---3-----0-----0-0-0-0-|
d------------------------3h-5--3h-5----3-2---|
a------------------------------------------1-|
E--------------------------------------------|


Verse: (The lead plays a cool harmony on ebg strings)
e-----------------------------------------|
b-----------------------------------------|
g-4--4--4-----2--2---4--4--0-----0--0--0--|
d-5--5--5--3--3--3---5--5--3h-5--3--2-----|
a-5--5--5--3--3--3---5--5--------------1--|
E-3--3--3-----0--1---3--3-----------------|

Well you can, see her walkin down on,
Peach tree street...

Bridge:
e-6------------------|
b-6h8-----3--3-----3-|
g------7--5--3-----3-|
d---------------5----|
a--------------------|
E--------------------|

Nine outta ten of them gunna,
sell you a dime

Chorus:
e-----------------------|------------------------------------------|
b-----------------------|------------------------------------------|
g-5--5----------5-----5-|------------------------------------------|
d-5--5----------5-----5-|--3--5--5---------------5--5--------------|
a-3--3-----5/7-----7----|--3--5--5--5--3--3--3---5--5--5--3--3--3--|
E-----------------------|--1--3--3--3--1--0--1---3--3--3--1--0--1--|

                                                     ...Think she's cute as she can be...

e-------|----------------------|
b-------|----------------------|
g---7---|---3--5-5-5-5-5-------|
d---7---|---3--5-5-5-5-5-------|
a---5---|---1--3-3-3-3-3--3--3-|
E-------|-----------------0--1-|--->into verse

Talkin' bout them
Funny talkin
Geogria Peaches

Break before solo:
e---------------------------------------|
b---------------------------------------|
g-------------3-------------------------|
d-3--5--------3--5------3--5------5-5-5-|
a-3--5-----------5------3--5------5-5-5-|
E-1--3------3----3------1--3------3-3-3-|--->Solo

              Peaches peaches, love them georgia peaches...

Solo: (I don't remember exactly but I'll give it a shot)
          (Oh, and give me a break, I've got my acoustic guitar, a computer and I'm at a hotel)
e-8h-6----8h-6----6---8--11b-|-13b-13b-13b-13b-13b-13b-13bd-|
b------8-------8----8--------|------------------------------|
g----------------------------|------------------------------|
d----------------------------|------------------------------|
a----------------------------|------------------------------|
E----------------------------|------------------------------|


e-13b(15)-(15)-!15)-(15)-(15)-13bd-11--13b-11---11-------|
b----------------------------------------13----13--------|
g--------------------------------------------------------|
d--------------------------------------------------------|
a--------------------------------------------------------|
E--------------------------------------------------------|


e-------8-|-------------|
b-8h-11---|-(6b)8h-11---|
g---------|-------------|
d---------|-------------|
a---------|-------------|
E---------|-------------|
                        Section (A)

->this hammering section is long I didn't feel like counting the amount of times

->(Section A)-All right this part is a little tricky, its not hard just a new technique
some guitar players. I don't know how to tab it so I'll explain what i have shown in
(A). You will trill the -8h-11- notes like you would do normally except you will also
the string on the sixth fret with your picking hand. Try it out and if it does not work
you just play that part without the bend.


e---------------11------11------11------11-|
b-11b-11bd--11b-----11b-----11b-----11b----|
g------------------------------------------|
d------------------------------------------|
a------------------------------------------|
E------------------------------------------|

I actually am leaving you the rest of the solo because I'm getting tired of tabbing
it drops down between frets 3 to 6 after this section. Great song, three of my favorite
players and my favorite band. Hope it helps you.
            
Submit corrections

comments powered by Disqus
↑ Back to top | Lynyrd Skynyrd Tabs for Georgia Peaches. Lyrics for acoustic guitar and electric guitar. 1 Tablatures and chords are parodies/interpretations of the original songs. You may use it for private study, scholarship, research or language learning purposes only