>
 >
All I Can Do Is Write About It

All I Can Do Is Write About It Bass Tabs

Lynyrd Skynyrd - All I Can Do Is Write About It chords, tabs, tablatures, lyrics

Guitar lessons | Add/correct | Request | Top 50 tabs Artists:  A B C D E F G H I J K L M N O P Q R S T U V W X Y Z 0-9

All I Can Do Is Write About It Bass Tabs – Lynyrd Skynyrd

CD, Sheet music, Poster

Do you like All I Can Do Is Write About It? Share with your friends now
Bass TabsChordsTabsUkulele
Band: Lynyrd Skynyrd



     W                   W                   W                 
G||-------------------|-------------------|-------------------|
D||-------------------|-------------------|-------------------|
A||-------------------|-------------------|-------------------|
E||-------------------|-------------------|-------------------|


  W                   W                   W                 
-------------------|-------------------|-------------------|
-------------------|-------------------|-------------------|
-------------------|-------------------|-------------------|
-------------------|-------------------|-------------------|


    W                   W                   W                 
|--------------------|-------------------|-------------------|
|*-------------------|-------------------|-------------------|
|*-------------------|-------------------|-------------------|
|--------------------|-------------------|-------------------|


  W                   W                   W                   W                 
-------------------|-------------------|-------------------|-------------------|
-------------------|-------------------|-------------------|-------------------|
-------------------|-------------------|-------------------|-------------------|
-------------------|-------------------|-------------------|-------------------|


  W                   Q    Q      Q     Q        H        H            
-------------------|--------------------------|----------------------||
-------------------|--------------------------|---------------------*||
-------------------|--------------------------|---------------------*||
-------------------|--3----LS----10-----LS----|--8--------LS---------||


   Q.         E   Q.     E       Q.      E  Q     Q     
-----------------------------|-------------------------|
-----------------------------|-------------------------|
-----------------------------|-------------------12----|
--15------15g17--10------7S--|--12------10--8----------|


   Q        Q     Q     Q        H        Q    Q     
------------------------------|---------------------|
------------------------------|---------------------|
--10----10g12----------12\----|-----------7----9----|
-----------------10-----------|--8------------------|


   Q.         E   Q.         E      Q     E     E   Q    E   E   
--------------------------------|-------------------------------|
--------------------------------|-------------/12--10----9------|
--10------10g12----------10g12--|---------------------------12--|
-----------------10-------------|--12-----L\--------------------|


          |---3--|                                            
     Q    S   S  S  E   Q     E    E     H.           Q       
|-------------------------------------|---------------------||
|*------------------------------------|--------------------*||
|*--10----9h-10p-9s-7-----------------|--------------------*||
|----------------------10----10h--12--|--8------------0-----||


   Q    E  E  Q    S S E     Q    Q    Q    E  E     Q    E  E  Q    S S E   
--------------------------|-----------------------|-------------------------|
*-------------------------|-----------------------|-------------------------|
*-------2-----5----5-3----|--3--------------------|-------2-----5----5-3----|
---3-------3-----------3--|-------5----3----0--2--|--3-------3-----------3--|


  Q    Q    Q    Q       Q    E  E  Q    E  E     Q    Q    Q    E  E   
----------------------|------------------------|-----------------------|
------------2----4----|------------------------|--2--------------------|
--3----5--------------|-------2-----5----5--2--|-------5----3----------|
----------------------|--3-------3-------------|-----------------0--2--|


                                          |--3--|     
  Q    E  E  Q    E  E     Q    Q    Q    E  E  E     
------------------------|---------------------------||
------------------------|--------------------------*||
-------2-----5-------2--|--3-----------------------*||
--3-------3-------5-----|-------5----3----0--1--2---||


        |--3--|                                            
   Q    E  E  E   E  E  E  E     Q     E  E  Q    Q      4x
------------------------------|--5-----------------------||
*-----------------------------|-------\7--L--5----------*||
*-------2--------/5--L-----5--|-------------------7\----*||
---3-------3--3---------3-----|--------------------------||


  Q    E  E  Q     E  E     Q    Q    Q    E  E     Q    E  E  Q    S  S E   
-------------------------|-----------------------|--------------------------|
------------------/7-----|------------2----4-----|------------------5s-7----|
-------2-----5--------5--|--3----5------------5--|-------2-----5------------|
--3-------3--------------|-----------------------|--3-------3------------3--|


  Q    Q    Q    E  E     Q    E  E  Q    S S E     Q    Q    Q    E  S S  
-----------------------|-------------------------|------------------------|
-----------------------|-------------------------|------------2----4------|
--3--------------------|-------2-----5----5-3----|--3----5------------5---|
-------5----3----0--2--|--3-------3-----------3--|----------------------3-|


  Q    E  E  Q    E  E     Q    E  E  Q    E  E     Q    Q    Q    E  E   
------------------------|------------------------|-----------------------|
------------------------|--2---------------------|-------2---------------|
-------2-----5----5--2--|-------5--0--3----2-----|------------5----0--2--|
--3-------3-------------|---------------------2--|--3--------------------|


                                                                  |--3--|   
  Q    Q    Q    E  E     Q    E  E  Q    E  E     Q    Q    Q    E  E  E   
-----------------------|------------------------|--------------------------|
-----------------------|------------------------|--------------------------|
--3--------------------|-------2-----5-------2--|--3-----------------------|
-------5----3----0--2--|--3-------3-------5-----|-------5----3----0--1--2--|


  Q    Q    Q    E  E     Q    Q    Q    Q       Q    Q    Q    E  E   
-----------------------|----------------------|-----------------------|
-------2---------------|------------2----4----|--5--------------------|
------------5----0--2--|--3----5--------------|-------7----5----5--2--|
--3--------------------|----------------------|-----------------------|


  Q    E  E  Q    E  E     Q    Q    Q    E  E     Q    Q    Q    S S  E   
------------------------|-----------------------|-------------------------|
--2---------------------|-------2---------------|------------2----4-Ls-5--|
-------5-----3----2-----|------------5----0--2--|--3----5-----------------|
----------5----------5--|--3--------------------|-------------------------|


  Q    Q    Q    E  E     Q    Q    Q    E  E     Q    E  E   Q    Q     
--2--------------------|-----------------1-----|--2----4--6\------------|
-------4----2----------|-------2----4-------2--|--------------2---------|
-----------------2--4--|--5--------------------|-------------------2----|
-----------------------|-----------------------|------------------------|


  Q.     E  Q    E  T T  S    Q    E  S  S Q    E  E   
-----------------2---------|--------------------------|
---------2--4-------4-Ls-2-|--------------------------|
--5------------------------|--0----4--4s-7------2--4--|
---------------------------|---------------0----------|


  E  E   E  E   E  E   E  E     Q    E  E   Q    Q       H        E   E  E  E   
-----------------------------|------------------------|------------------------|
-----------------------------|-------4--L/--2---------|------------------------|
--5--L\--2--L/---------------|-------------------2----|--5--------L------------|
----------------5--L\--2--4--|--5---------------------|--------------/7--5--0--|


                                          |--3--|                           
  Q    E  E  Q    E  E     Q    Q    Q    E  E  E     Q    Q    Q    E  E   
------------------------|--------------------------|-----------------------|
------------------------|--------------------------|-------2---------------|
-------2-----5-------2--|--3-----------------------|------------5----0--2--|
--3-------3-------5-----|-------5----3----0--1--2--|--3--------------------|


                                                                   |--3--|     
  Q    Q    Q    E  E     Q    E  E  Q    E  E     Q    E  E  Q    S  S  S E   
-----------------------|------------------------|-----------------------------|
-------0----2----------|------------------------|--2--------------------------|
--3--------------------|-------2-----5----5--2--|-------5-----3----2h-3p-2-0--|
-----------------0--2--|--3-------3-------------|----------5------------------|


  Q    Q    Q    E  E     Q    Q    Q    S E.     Q    E  E  Q    S S E   
-----------------------|-----------------------|-------------------------|
-------2---------------|-------0----2----4-----|-------------------------|
------------5----0--2--|--3----------------5---|-------2-----5----5-3----|
--3--------------------|-----------------------|--3-------3-----------3--|


  Q    Q    Q    S S S  S    Q    Q    Q    E  E     Q    Q      Q    S S E   
--------------------------|-----------------------|--------------------------|
--------------------------|-------2---------------|-------0----0g2----4------|
--3-----------------------|------------5----0--2--|--3------------------x----|
-------5----3----0-2-2h-3-|--3--------------------|-----------------------2--|


  Q    E  E   Q    E  E     E  E   Q    Q    E  E     Q    E  E  Q    E  E   
-------------------------|-------------------------|------------------------|
-------------------------|--2--L\------------------|------------------------|
-------2------5----5--2--|---------5----3----2--0--|-------2-----5-------2--|
--3-------3/-------------|-------------------------|--3-------3-------5-----|


  Q     Q    Q    S S E     Q    E  E   Q    E  E     Q    E  E  Q    E  E   
-------------------------|-------2--4\-------------|------------------------|
-------/7----5----2-2-0--|-------------------7-----|--2----0----------------|
--3----------------------|--------------5----------|-------------3----2--0--|
-------------------------|--3-------------------5--|----------3-------------|


  H        Q    Q        W                   W                  
----------------------|-------------------|-------------------||
----------------------|-------------------|-------------------||
-----------5----------|-------------------|-------------------||
--3-------------5S----|--0----------------|--L----------------||




Duration Legend
---------------
W - whole
H - half
Q - quarter
E - 8th
S - 16th
T - 32nd
X - 64th
. - note dotted
|-n-|  - n-tuplets


Tablature Legend
----------------
L - tied note
x - dead note
g - grace note
(n) - ghost note
> - accentuded note
NH - natural harmonic
AH - artificial harmonic
TH - tapped harmonic
SH - semi harmonic
PH - pitch harmonic
h - hammer on
p - pull off
b - bend
br - bendRelease
pb - preBend
pbr - preBendRelease
brb - bendReleaseBend
\n/ - tremolo bar dip
\n - tremolo bar dive
-/n - tremolo bar Release up
/n\ - tremolo bar inverted dip
/n - tremolo bar return
-\n - tremolo bar Release down
S - shift slide
s - legato slide
/ -  slide into from below or out of upwards
\ -  slide into from above or out of downwards
~ - vibrato
W - wide vibrato
tr - trill
TP - tremolo picking
T - tapping
S - slap
P - pop
< - fade in
^ - brush up
v - brush down





Comments


Popular Lynyrd Skynyrd tabs & chords
Made In The Shade 2 Bass Tabs
Sweet Home Alabama 3 Bass Tabs
Honky Tonk Night Time Man 1 Chords
I Need You Chords
Roll Gypsy Roll Chords
Same Old Blues 1 Tabs
Am A Losin Ukulele
Dont Ask Me No Questions Ukulele
Gifted Hands Ukulele
The Last Rebel Ukulele


Song lyrics



↑ Back to top | Tablatures and chords are parodies/interpretations of the original songs. You may use it for private study, scholarship, research or language learning purposes only
© 2014 AZChords.com Contact us | Privacy policy | DMCA | Add/correct tabs | Request tabs | Top 50 tabs