>
 >
Far Q

Far Q Bass Tabs

Lower Than Atlantis - Far Q chords, tabs, tablatures, lyrics

Guitar lessons | Add/correct | Request | Top 50 tabs Artists:  A B C D E F G H I J K L M N O P Q R S T U V W X Y Z 0-9

Far Q Bass Tabs – Lower Than Atlantis

CD, Sheet music, Poster

Do you like Far Q? Share with your friends now
Bass TabsTabs
-------------------------------------------------------------------------------
-------------------------------------------------------------------------------


 Tuning:Drop D

 Intro (0.10)
G|-------------------------------------------------------------|
D|-------------------------------------------------------------|
A|--------------------------------------2-5-5-2--333-3-2--0~---|
D|999-7~----77-7h9----999-7~----77-7h9-------------------------|

G|--------------------|
D|--------------------|
A|8--8-7-5-8--8-7-5---|
D|--------------------|

G|-----------------------------------------------------------------------------------|
D|-----------------------------------------------------------------------------------|
A|---------5555-7777------------5555-7777-----------5555-7777----------------888-7---|
D|99999999-----------7p55555555-----------2p3333333-----------7p5555555-7777---------|

 Verse x2
G|-----------------------------------------------------------------------------------|
D|-----------------------------------------------------------------------------------|
A|---------5555-7777------------5555-7777-----------5555-7777----------------888-7---|
D|99999999-----------7p55555555-----------2p3333333-----------7p5555555-7777---------|


 Chorus x2
G|-----------------------------|
D|-----------------------------|
A|-----------------------------|
D|999999-777777-444444-555555--|

G|-----------|
D|-----------|
A|-----------|
D|9~---------|

 Verse

 x2
G|--------------------------------------|
D|--------------------------------------|
A|--------------------------------------|
D|99999999-55555555-2222222-555555555---|

G|----------|
D|----------|
A|----------|
D|9/--------|

 Chorus x2


G|-----------|
D|-----------|
A|-----------|
D|99~--------|

 Pause

 Bridge x2 (2.50)
G|----------------------------|
D|----------------------------|
A|----------------------------|
D|99-7h9~---99-7h9-0-2-4------|

 x4
G|------------------------------------------|
D|------------------------------------------|
A|------------------------------------------|
D|999-7h9-999999999-999-7h9-0-2-4-55555555--|

G|-----------|
D|-----------|
A|-----------|
D|9~---------|





Comments


Popular Lower Than Atlantis tabs & chords
Deadliest Catch Bass Tabs
Down With The Kids Bass Tabs
Another Sad Song Chords
Merry Christmas Wherever You Are Chords
Another Sad Song 1 Tabs
Deadliest Catch Intro Tabs
Far Q Tabs
Far Q Intro Tabs
Love Tabs
Motorway Of Life Tabs


Song lyrics



↑ Back to top | Tablatures and chords are parodies/interpretations of the original songs. You may use it for private study, scholarship, research or language learning purposes only
© 2014 AZChords.com Contact us | Privacy policy | DMCA | Add/correct tabs | Request tabs | Top 50 tabs