>
 >
Far Q

Far Q Guitar Tabs

Lower Than Atlantis - Far Q chords, tabs, tablatures, lyrics

Guitar lessons | Add/correct | Request | Top 50 tabs Artists:  A B C D E F G H I J K L M N O P Q R S T U V W X Y Z 0-9

Far Q Guitar Tabs – Lower Than Atlantis

CD, Sheet music, Poster

Do you like Far Q? Share with your friends now
Bass TabsTabs
-------------------------------------------------------------------------------
-------------------------------------------------------------------------------

Tuning: Drop D [DADGBe]


            b b b b
e|-----------------------|
B|-----------------------|
G|---44444444-4-4-4------|
D|---22222222-2-2-2------|
A|---22222222-2-2-2------|
D|---22222222-2-2-2------|  x13

                                 Let Ring
e|--------------------------------------|
B|--------------------------------------|
G|---101010-9-7---10101010-9-7----------|
D|---8-8-8--7-5---8-8-8-8--7-5---9------|
A|---8-8-8--7-5---8-8-8-8--7-5---9------|
D|---8-8-8--7-5---8-8-8-8--7-5---9------|

e|----------------------------------------------------------------------|
B|----------------------------------------------------------------------|
G|------------777-999-----------777-999-----------777-999---------------|
D|---999-9-9--xxx-xxx--555-5-5--xxx-xxx--222-2-2--xxx-xxx--555-5-5------|
A|---999-9-9--555-777--555-5-5--555-777--222-2-2--555-777--555-5-5------|
D|---999-9-9-----------555-5-5-----------222-2-2-----------555-5-5------| x2

     Let Ring
e|----------|
B|----------|
G|---4------|
D|---2------|
A|---2------|
D|---2------|

e|-----------------------------------------------------------|
B|-----------------------------------------------------------|
G|-----------------------------------------------------------|
D|---9-9-9-9-9-9--7-7-7-7-7-7--4-4-4-4-4-4--5-5-5-5-5-5------|
A|---9-9-9-9-9-9--7-7-7-7-7-7--4-4-4-4-4-4--5-5-5-5-5-5------|
D|---9-9-9-9-9-9--7-7-7-7-7-7--4-4-4-4-4-4--5-5-5-5-5-5------| x2

     Let Ring
e|----------|
B|----------|
G|----------|
D|---9------|
A|---9------|
D|---9------|

e|------------------------------------------------------------------------------------------|
B|------------------------------------------------------------------------------------------|
G|---1111119--444-4-4--9/1111-99--141414-1111--9/11119--444-4-4--9/1111-99--1616161614------|
D|---x-x-x-x--xxx-x-x--x/x-x--xx--x-x-x--x-x---x-x-x-x--xxx-x-x--x/x-x--xx--x-x-x-x-x-------|
A|---9-9-9-7--222-2-2--7/9-9--77--121212-9-9---7/9-9-7--222-2-2--7/9-9--77--1414141412------|

x2

     Let Ring
e|-----------|
B|-----------|
G|---16------|
D|---x-------|
A|---14------|
D|-----------|

e|----------------------------------|
B|----------------------------------|
G|----------------------------------|
D|---9-9-7-9---9-9-7-9-0-2-4-5------|
A|---9-9-7-9---9-9-7-9-0-2-4-5------|
D|---9-9-7-9---9-9-7-9-0-2-4-5------| x4

e|-----------------------------------------|
B|-----------------------------------------|
G|-----------------------------------------|
D|---99979999999999999997902455555555------|
A|---99979999999999999997902455555555------|
D|---99979999999999999997902455555555------| x4

     Let Ring
e|----------|
B|----------|
G|----------|
D|---9------|
A|---9------|
D|---9------|

************************************

| /   slide up
| \   slide down
| h   hammer-on
| p   pull-off
| ~   vibrato
| +   harmonic
| x   Mute note
| b   Bend
| pb  Pre-bend
| br  Bend release
| pbr Pre-bend release
| brb Bend release bend

************************************

Awesome song.
Some parts of the tab are repeated, it's not difficult to figure out which ones.
I think this is pretty much perfect, hopefully anyway. comment or email or whatever if 
think i've made a mistake.
cheers.





Comments


Popular Lower Than Atlantis tabs & chords
Beech Like The Tree Bass Tabs
Far Q Bass Tabs
Merry Christmas Wherever You Are Chords
Beech Like The Tree Tabs
Deadliest Catch Intro Tabs
Far Q Intro Tabs
If The World Was To End Tabs
If The World Was To End 1 Tabs
Motorway Of Life Tabs
Another Sad Song Ukulele


Song lyrics



↑ Back to top | Tablatures and chords are parodies/interpretations of the original songs. You may use it for private study, scholarship, research or language learning purposes only
© 2014 AZChords.com Contact us | Privacy policy | DMCA | Add/correct tabs | Request tabs | Top 50 tabs