>
 >
Don't Worry Baby

Don't Worry Baby Guitar Tabs

Los Lobos - Don't Worry Baby chords, tabs, tablatures, lyrics

Guitar lessons | Add/correct | Request | Top 50 tabs Artists:  A B C D E F G H I J K L M N O P Q R S T U V W X Y Z 0-9

Don't Worry Baby Guitar Tabs – Los Lobos

CD, Sheet music, Poster

Do you like Don't Worry Baby? Share with your friends now
Tabs
-------------------------------------------------------------------------------
                             Don’t Worry Baby – Los Lobos
                       From the “How Will the Wolf Survive” Album
-------------------------------------------------------------------------------

Tuning: Standard

Here is the Whole song tabbed out (no repeating measures)
This is for you David and Cesar

E|---------------------------------------------------------------------------|
B|--3-2-0---0-3-2-0--------------------3-2-0---0-3-2-0-----------------------|
G|--4-2-0---0-4-2-0--------------------4-2-0---0-4-2-0-----------------------|
D|--------2----------------2-----------------2-----------------2-------------|
A|---------------------------------------------------------------------------|
E|-------------------0-h-3---0---------------------------0-h-3---0-----------|


E|---------------------------------------------------------------------------|
B|--3-2-0---0-3-2-0--------------------3-2-0---0-3-2-0-----------------------|
G|--4-2-0---0-4-2-0--------------------4-2-0---0-4-2-0-----------------------|
D|--------2----------------2-----------------2-----------------2-------------|
A|---------------------------------------------------------------------------|
E|-------------------0-h-3---0---------------------------0-h-3---0-----------|


E|---------------------------------------------------------------------------|
B|--0-2-0-2-0---------0-2-0-2-0----------0-2-0-2-0----------0-2-0-2-0--------|
G|--0-2-0-2-0---------0-2-0-2-0----------0-2-0-2-0----------0-2-0-2-0--------|
D|------------2-----------------2------------------2-------------------2-----|
A|---------------------------------------------------------------------------|
E|---------------------------------------------------------------------------|


E|---------------------------------------------------------------------------|
B|--3-3--3----2-0-0-----2-2-0----------------0-2-0-2-0-----0-2-0-2-0---------|
G|--4-4--4----2-0-0-----2-2-0----------------0-2-0-2-0-----0-2-0-2-0---------|
D|------------------2---------2-0-2--------------------2-------------2-------|
A|---------------------------------------------------------------------------|
E|-----------------------------------0-3-5-0---------------------------------|
                              Walk up bass notes 
                       
E|---------------------------------------------------------------------------|
B|--0-2-0-2-0---------0-2-0-2-0----------3-3--3----2-0-0------2-2-0----------|
G|--0-2-0-2-0---------0-2-0-2-0----------4-4--4----2-0-0------2-2-0----------|
D|------------2-----------------2------------------------2----------2-0-2----|
A|---------------------------------------------------------------------------|
E|---------------------------------------------------------------------------|


E|---------0---0-------------------------------------------------------------|
B|--0-1/3-3--3/5\3---------------0-2-0-2-0-----------------------------------|
G|----------------4\2--0---------0-2-0-2-0-----------------------------------|
D|-----------------------2-0-2-------------2---------------------------------|
A|---------------------------------------------------------------------------|
E|---------------------------------------------------------------------------|


E|---------0---0-------------------------------------------------------------|
B|--0-1/3-3--3/5\3---------------0-2-0-2-0-----------------------------------|
G|----------------4\2--0---------0-2-0-2-0-----------------------------------|
D|-----------------------2-0-2-------------2---------------------------------|
A|---------------------------------------------------------------------------|
E|---------------------------------------------------------------------------|





E|---------0---0-------------------------------------------------------------|
B|--0-1/3-3--3/5\3---------------0-2-0---------------------------------------|
G|----------------4\2--0---------0-2-0---------------------------------------|
D|-----------------------2-0-2---------2-0-2---------------------------------|
A|---------------------------------------------------------------------------|
E|---------------------------------------------------------------------------|

E|---------------------------------------------------------------------------|
B|--3-2-0---0-3-2-0--------------------3-2-0---0-3-2-0-----------------------|
G|--4-2-0---0-4-2-0--------------------4-2-0---0-4-2-0-----------------------|
D|--------2---------------2------------------2---------------2---------------|
A|---------------------------------------------------------------------------|
E|------------------0-h-3---0--------------------------0-h-3---0-------------|


E|---------------------------------------------------------------------------|
B|--3-2-0---0-3-2-0--------------------3-2-0---0-3-2-0-----------------------|
G|--4-2-0---0-4-2-0--------------------4-2-0---0-4-2-0-----------------------|
D|--------2---------------2------------------2-------------------------------|
A|---------------------------------------------------------------------------|
E|------------------0-h-3---0------------------------------------------------|


E|---------------------------------------------------------------------------|
B|--3-3--3----2-0-0-----2-2-0------------------------------------------------|
G|--4-4--4----2-0-0-----2-2-0------------------------------------------------|
D|------------------2---------2-0-2------------------------------------------|
A|---------------------------------------------------------------------------|
E|-----------------------------------0-3-5-0---------------------------------|

First Solo (Distortion)
E|---------------------------------------------------------------------------|
B|------15---15------12----12-----------12-14-12-----------------------------|
G|--12—14^--14^--14--12-14-12-----------12-14-12-----------------------------|
D|-----------------------------14-12-14----------14-12-14\-------------------|
A|---------------------------------------------------------------------------|
E|---------------------------------------------------------------------------|

E|---------------------------------------------------------------------------|
B|--12-15-12--15^--15^-15-12-15-12-------------------------------------------|
G|-------------------------------------14/16~~~~-----------------------------|
D|---------------------------------------------------------------------------|
A|---------------------------------------------------------------------------|
E|---------------------------------------------------------------------------|

E|--------17^--17^--17^---17-15-17-15----------------------------------------|
B|--15-17-----------------------------17-17-------------------------12\------|
G|------------------------------------------16\14----12-14-12-------12\------|
D|------------------------------------------------------------14-------------|
A|---------------------------------------------------------------------------|
E|---------------------------------------------------------------------------|
 
Second Solo  (Distortion)
E|---------------------------------------------------------------------------|
B|----------------------------------------------14-12\---15~---14-12-14------|
G|----------------------------------------------14-12\---16~---14-12-14------|
D|------------------------12h14p12h14p12h14p12-------------------------------|
A|---12h14p12h14p12h14p12----------------------------------------------------|
E|---------------------------------------------------------------------------|


E|-------------------------------------------12-12----12----12---------------|
B|-----------12-12-14-12-14--12-------12-15^-------15^---15----15-12—15^~~~--|
G|-----------12-12-14-12-14--12----------------------------------------------|
D|--14-12-14--------------------14-------------------------------------------|
A|---------------------------------------------------------------------------|
E|---------------------------------------------------------------------------|




E|--12-------------------------------------------------------------17^-------|
B|-----15-----12----------12-14-12-14-12---------------------15-12-----------|
G|--------14-----12^------12-14-12-14-12^-------------12-14^-----------------|
D|-------------------14------------------14----------------------------------|
A|---------------------------------------------------------------------------|
E|---------------------------------------------------------------------------|




E|--12-----------------------------------------------------------------------|
B|-----15-12-----------------------------------------------------------------|
G|------------14^p12---------------------------------------------------------|
D|-------------------14-12-14------12----------------------------------------|
A|------------------------------------14\12--10------------------------------|
E|----------------------------------------------10h12--End-of-Solo-----------|


E|---------------------------------------------------------------------------|
B|--0-2-0-2-0---------0-2-0-2-0----------0-2-0-2-0----------0-2-0-2-0--------|
G|--0-2-0-2-0---------0-2-0-2-0----------0-2-0-2-0----------0-2-0-2-0--------|
D|------------2-----------------2------------------2-------------------2-----|
A|---------------------------------------------------------------------------|
E|---------------------------------------------------------------------------|


E|---------------------------------------------------------------------------|
B|--3-3--3----2-0-0---------2-2-0--------------------------------------------|
G|--4-4--4----2-0-0---------2-2-0--------------------------------------------|
D|------------------2-------------2-0-2--------------------------------------|
A|---------------------------------------------------------------------------|
E|---------------------------------------------------------------------------|


E|---------------------------------------------------------------------------|
B|--3-2-0---0-3-2-0--------------------3-2-0---0-3-2-0-----------------------|
G|--4-2-0---0-4-2-0--------------------4-2-0---0-4-2-0-----------------------|
D|--------2---------------2------------------2---------------2---------------|
A|---------------------------------------------------------------------------|
E|------------------0-h-3---0--------------------------0-h-3---0-------------|

E|---------------------------------------------------------------------------|
B|--3-2-0---0-3-2-0--------------------3-2-0---0-3-2-0-----------------------|
G|--4-2-0---0-4-2-0--------------------4-2-0---0-4-2-0-----------------------|
D|--------2---------------2------------------2-------------------------------|
A|---------------------------------------------------------------------------|
E|------------------0-h-3---0------------------------------------------------|


E|---------------------------------------------------------------------------|
B|--3-3--3----2-0-0---------2-2-0--------------------------------------------|
G|--4-4--4----2-0-0---------2-2-0--------------------------------------------|
D|------------------2-------------2-0-2--------------------------------------|
A|---------------------------------------------------------------------------|
E|---------------------------------------------------------------------------|

Guitar Fills
E|----------------3^----------------------------------3^---------------------|
B|----3---5---3-------5---3h5--------------3---5---3------5----3h5-----------|
G|--4---4---4-----------4----------------4---4---4----------4----------------|
D|---------------------------------------------------------------------------|
A|---------------------------------------------------------------------------|
E|---------------------------------------------------------------------------|








E|----------------3^----------------------------------3^---------------------|
B|----3---5---3------5---3h5--------------3---5---3------5---3---------------|
G|--4---4---4----------4----------------4---4---4----------4-----------------|
D|---------------------------------------------------------------------------|
A|---------------------------------------------------------------------------|
E|---------------------------------------------------------------------------|


E|---------------------------------------------------------------------------|
B|--3-3--3----2-0-0---------2-2-0--------------------------------------------|
G|--4-4--4----2-0-0---------2-2-0--------------------------------------------|
D|------------------2-------------2-0-2--------------------------------------|
A|---------------------------------------------------------------------------|
E|---------------------------------------------------------------------------|

E|---------0---0-------------------------------------------------------------|
B|--0-1/3-3--3/5\3---------------0-2-0-2-0-----------------------------------|
G|----------------4\2--0---------0-2-0-2-0-----------------------------------|
D|-----------------------2-0-2-------------2---------------------------------|
A|---------------------------------------------------------------------------|
E|---------------------------------------------------------------------------|


E|---------0---0-------------------------------------------------------------|
B|--0-1/3-3--3/5\3---------------0-2-0-2-0-----------------------------------|
G|----------------4\2--0---------0-2-0-2-0-----------------------------------|
D|-----------------------2-0-2-------------2---------------------------------|
A|---------------------------------------------------------------------------|
E|---------------------------------------------------------------------------|

E|---------0---0-------------------------------------------------------------|
B|--0-1/3-3--3/5\3---------------0-2-0---------------------------------------|
G|----------------4\2--0---------0-2-0---------------------------------------|
D|-----------------------2-0-2---------2-0-2---------------------------------|
A|---------------------------------------------------------------------------|
E|---------------------------------------------------------------------------|

| /  slide up
| \  slide down
| h  hammer-on
| p  pull-off
| ~  vibrato
| +  harmonic
| x  Mute note
===============================================================================





Comments


Popular Los Lobos tabs & chords
The Road To Gila Bend 2 Chords
Cancion Del Mariachi Tabs
Desperado Tabs
Disperado Tabs
Mas Y Mas Tabs
One Time, One Night Tabs
Cumbia Raza Ukulele
La Pistola Y El Corazon Ukulele
One Time One Night Ukulele
Wake Up Dolores Ukulele


Song lyrics



↑ Back to top | Tablatures and chords are parodies/interpretations of the original songs. You may use it for private study, scholarship, research or language learning purposes only
© 2014 AZChords.com Contact us | Privacy policy | DMCA | Add/correct tabs | Request tabs | Top 50 tabs