>
 >
El Mariachi

El Mariachi Guitar Tabs

Los Lobos - El Mariachi chords, tabs, tablatures, lyrics

Guitar lessons | Add/correct | Request | Top 50 tabs Artists:  A B C D E F G H I J K L M N O P Q R S T U V W X Y Z 0-9

El Mariachi Guitar Tabs – Los Lobos

CD, Sheet music, Poster

Do you like El Mariachi? Share with your friends now
Tabs
El Mariachi - from "Once Upon a Time in Mexico"
 This song is played by two guitars.


  E |----------0---3-2-0---------0---3-2-0---------2-----------------0-----|
  B |--------1---1-------------0---0-------------0-----0-----------0---0---|
  G |------2-----------------0-----------------2-----2-----------0---------|
  D |----2-----------------2-----------------1-----------------2-----------|
  A |--0-----------------------------------2-------------------------------|
  E |--------------------0-------------------------------2h3-0-------------|

  E |---------------0---------------0---------------2/3-2-0-----------0----|
  B |-------------1-----1---------0-----0---0-----0---------0-------0------|
  G |-----------2-----2---------0-----0---0-----2-----------------0--------|
  D |---------2-----------2---2---------------1-----------------2----------|
  A |-----0-0-----------0-------------------2------------------------------|
  E |-0h3-------------------0---------------------------------0------------|

  E |-0-2-2h3-2-0---------0-0-2-3-5-7-7-------3-0-------------2---------------0-|
  B |-------------1-----1-------------------0-----0---------0-----0---------0---|
  G |-----------------2-----------------------------0-----2-----2---2-----0-----|
  D |---------------2---------------------2-------------1---------------2-------|
  A |-------------0--------------------(2)------------2-------------------------|
  E |---------------------------------0-------------------------------0---------|

  E |-------------------------------------------2h3-2p0---------0---0----|
  B |-1-----3-3/5-3-1-0-----3-3/5---3-0-0-----0---------------0----------|
  G |-----2---------------0-------0---------2---------------0-----0---0--|
  D |---2---------------2-----------------1------------------------------|
  A |-0---------------------------------2-----------------2--------------|
  E |-----------------0---------------------------------0----------------|

      (faster)                                        let ring
  E |-------------------------0-----------------------0-|--------------------0-|
  B |-1-------1-------1-----1-----1---0-------0-----0---|-0---0-4-5/7-5----0---|
  G |-----2-------2-------2-----2---2-----0-------0-----|---2------------0-----|
  D |--(2)--2---2---2---2---------------2---2---2-------|--1------------2------|
  A |-0-------------------------------------------------|-2--------------------|
  E |---------------------------------0-----------------|-------------0--------|

  E |---2h3---------0---2h3---------0---2h3-2-----------2h3-2-0-------0---|
  B |-------------1---------------0-----------------0---------------0-----|
  G |-0---------2-----2---------0-----0-----------2---2-----------0-------|
  D |---------2---------------2-----------------1---------------2---------|
  A |-------0-------------------------------2-2---------------------------|
  E |-----------------------0---------------------------------0-----------|

  E |---2h3-0-------0---2h3-0-------0---2h3-2-------2---3p2-0----|
  B |-------------1---------------0---------------0---------0----|
  G |-0---------2-----2---------0-----0---------2-----2-----0----|
  D |---------2---------------2---------------1-------------2----|
  A |-------0-------------------------------2---------------2----|
  E |-----------------------0-------------------------------0----|

This is the second guitar part - listen to the song to get the timing right, and this
part ends a few bars before the first part.


  E |--------------------------------------------------------7----|
  B |---------------------------------------------5-5-7-8/10------|
  G |-4-5-4-2-4-5-----4-4-4-2-0-2/4-----2-2/4-4-------------------|
  D |-------------------------------------------------------------|
  A |-------------------------------------------------------------|
  E |-------------------------------------------------------------|

  E |-----------------------------0-2-3-3/5-3-5-5/7-5-7-7/8-7-8-8/10-8-10-10/12-|
  B |---------------------------------------------------------------------------|
  G |--7-5-4-5-5-----7-5-4-5-4--------------------------------------------------|
  D |---------------------------------------------------------------------------|
  A |---------------------------------------------------------------------------|
  E |---------------------------------------------------------------------------|

  E |--------5-5/7-----7h8p7-5-7-7-7-------------------------------------------------|
  B |--5-7-8-------------------------5-5-5-5/4-4-4-5-5/7-7-----7/8-7h8p7-5-6/7-5-7-5-|
  G |--------------------------------------------------------------------------------|
  D |--------------------------------------------------------------------------------|
  A |--------------------------------------------------------------------------------|
  E |--------------------------------------------------------------------------------|

  E |--------5-5/7-----------5-5/7-----------5-5/7-8-7----12-12-------|
  B |--7-8-8-----------7-8-8-----------7-8-8--------------------------|
  G |-----------------------------------------------------------------|
  D |-----------------------------------------------------------------|
  A |-----------------------------------------------------------------|
  E |-----------------------------------------------------------------|

  E |------5/7-7------------5-5/7--------------------------|
  B |--7-8------------7/8-8-----------7----5-7/8-7-5h7p5---|
  G |------------------------------------------------------|
  D |------------------------------------------------------|
  A |------------------------------------------------------|
  E |------------------------------------------------------|

  E |--12-12-12-12p10-10-10/8-8-8/6-7-7---|
  B |-------------------------------------|
  G |-------------------------------------|
  D |-------------------------------------|
  A |-------------------------------------|
  E |-------------------------------------|

Enjoy!





Comments


Popular Los Lobos tabs & chords
Mustang Sally Bass Tabs
Be Still Chords
Deep Dark Hole Chords
La Pistola Y El Corazon Chords
Disperado Tabs
Evangeline Tabs
La Bamba (Intro Ver 3) Tabs
La Bamba Intro 2 Tabs
Desperado Ukulele
Evangeline Ukulele


Song lyrics



↑ Back to top | Tablatures and chords are parodies/interpretations of the original songs. You may use it for private study, scholarship, research or language learning purposes only
© 2014 AZChords.com Contact us | Privacy policy | DMCA | Add/correct tabs | Request tabs | Top 50 tabs