» » »

Local H, The One With Kid Tabs (ver.2)

Artists:  A B C D E F G H I J K L M N O P Q R S T U V W X Y Z # 

The One With Kid Tabs (ver.2)

Local H Tabs
 Rating:
4/5 (4 votes)
The One With Kid lessons Tabs too difficult? Try these video lessons and learn fast
1
                Alright. This is my first tab, took the better part of today to finish. There's a couple 
that aren't exactly right but it's pretty close and should sound fine when you pay it.

The One With 'Kid'  --  Local H
Tuning - 1/2 step down
2 guitar - lead guitar (slide + other intro stuff)
         - rhythm/other guitar

INTRO

Guitar 1
--------------------------------------------------------|
--------------------------------------------------------|
--------------------------------------------------------|
-7-7-7--------------------------------------------------|
-7-7-7-----------7---7---7--7--7-7-7-7--7-7-7-7-7-------|
-5-5-5----5----5---5---5--5---5-5-5-5---5-5-5-5-5-------|


Guitar 2
                  \/ - using slide
-----------------------------------------------------------|
-----------------s24--------24s17-------15s17--------------|
-----------------------------------------------------------|
-----------------------------------------------------------|
-----------------------------------------------------------|
-----------------------------------------------------------|
                 ^about 14, my guitar doesnt have that many frets

------------10----------------10----------------10------------5---------|
------13-------13-------13-------13-------13-------13-----5--------8s10-|
---12----12----------11----11----------10----10---------5---5-----------|
-0-----------------0-----------------0----------------------------------|
------------------------------------------------------0-----------------|
------------------------------------------------------------------------|


Verse
"And when there's no one..."

Gtr 2
---------5----------------------10--------|
-----5-----------------10--13------13-----|
---5---5----------------------------------|
------------------------------------------|
-0----------------------------------------|
------------------------------------------|

Gtr 1
------------------------------------------|
------------------------------------------|
------------------------------------------|
--7-------------------7--7--7-------------|
--7-------------------7--7--7-------------|
--5-------------------5--5--5-------------|


"Forced to face the truth..."

Gtr 2
------------------------------------------|
----------------------13--12--10----------|
------------------------------------------|
------------------------------------------|
------------------------------------------|
------------------------------------------|

Gtr 1
------------------------------------------|
------------------------------------------|
------------------------------------------|
-5--------------------5--5--5-------------|
-5--------------------5--5--5-------------|
-3--------------------3--3--3-------------|


"And see it from all sides..."

Gtr 2
------------------------------------------|
-----------------10-12-13-12-10-----------|
------------------------------------------|
------------------------------------------|
------------------------------------------|
------------------------------------------|

Gtr 1
------------------------------------------|
------------------------------------------|
-2--------------------2--2--2-------------|
-3--------------------3--3--3-------------|
-3--------------------3--3--3-------------|
-1--------------------1--1--1-------------|


"battered and outgrew

Gtr 2
------------------------------------------|
-5-5-5-8-5--------------------------------|
------------------------------------------|
------------------------------------------|
------------------------------------------|
------------------------------------------|

Gtr 1
------------------------------------------|
------------------------------------------|
----------5-------------------------------|
-7--7--7--7--7----------------------------|
-7--5--5--5--5----------------------------|
-5--5--5-----5----------------------------|


"so baby could you..."

Gtr 2
-----10----------------------------10---------------------|
--13----13-----------------10--13------13-----------------|
----------------------------------------------------------|
----------------------------------------------------------|
----------------------------------------------------------|
----------------------------------------------------------|

Gtr 1
------------------------------------------|
------------------------------------------|
------------------------------------------|
--7-------------------7--7--7-------------|
--7-------------------7--7--7-------------|
--5-------------------5--5--5-------------|

"Fall off the earth..."

Gtr 2
-------------------------------------------|
----------------------13--12--10-----------|
-------------------------------------------|
-------------------------------------------|
-------------------------------------------|
-------------------------------------------|

Gtr 1
------------------------------------------|
------------------------------------------|
------------------------------------------|
-5--------------------5--5--5-------------|
-5--------------------5--5--5-------------|
-3--------------------3--3--3-------------|


"Just give me a call..."

Gtr 2
-----------------------------------------|
-----------------10-12-13-12-10----------|
-----------------------------------------|
-----------------------------------------|
-----------------------------------------|
-----------------------------------------|

Gtr 1
------------------------------------------|
------------------------------------------|
-2--------------------2--2--2-------------|
-3--------------------3--3--3-------------|
-3--------------------3--3--3-------------|
-1--------------------1--1--1-------------|


"somethingsomething too"

Gtr 2
------------------------------------------|
-5-5-5-8-5--------------------------------|
------------------------------------------|
------------------------------------------|
------------------------------------------|
------------------------------------------|

Gtr 1
------------------------------------------|
------------------------------------------|
----------5-------------------------------|
-7--7--7--7--7----------------------------|
-7--5--5--5--5----------------------------|
-5--5--5-----5----------------------------|


 So now which one, Is the owner,    Of the friends we made together
------------10----------------10----------------10------------5----|
------13-------13-------13-------13-------13-------13-----5--------|
---12----12----------11----11----------10----10---------5---5------|
-0-----------------0-----------------0--------------------------0--|
------------------------------------------------------0------------|
-------------------------------------------------------------------|

And how do we,     divide a city,  and the bars where we drank forever
------------10----------------10----------------10------------5----|
------13-------13-------13-------13-------13-------13-----5--------|
---12----12----------11----11----------10----10---------5---5------|
-0-----------------0-----------------0-----------------------------|
------------------------------------------------------0---------0--|
-------------------------------------------------------------------|

      So take this - for granted - you'll leave here empty handed
-------------------------------------------------------------------|
-------------------------------------------------------------------|
-------------------------------------------------------------------|
7-7-5-3-3-3-----------5------------2-----------------3-------------|
7-7-5-3-3-3-----------5------------2-----------------3-------------|
5-5-3-1-1-1-----------3------------0-----------------1-------------|


My image of you shattered - winning is all that matters
-------------------------------------------------------------------|
-------------------------------------------------------------------|
-------------------------------------------------------------------|
3-3-3-------5-5-5---------2-2-2----------3-3-3---------------------|
3-3-3-------5-5-5---------2-2-2----------3-3-3---------------------|
1-1-1-------3-3-3---------0-0-0----------1-1-1---------------------|

I wont let you gut our happy home
-------------------------------------------------------------------|
-------------------------------------------------------------------|
-------------------------------------------------------------------|
-3-------------5-------7-------------------------------------------|
-3-------------5-------7-------------------------------------------|
-1-------------3-------5-------------------------------------------|


2:04 - 2:25
-------------------------------------------------------------------|
-------------------------------------------------------------------|
-------------------------------------------------------------------|        x4
-7-9-10-9--3-9-10-9--4-9-10-9--5-9-10-12---------------------------|
-7-9-10-9--3-9-10-9--4-9-10-9--5-9-10-12---------------------------|
-5-7--8-7--1-7--8-7--2-7--8-7--3-7--8-10---------------------------|

"Give me..." (not sure about this part) 2:25 - 2:36
-------------------------------------------------------------------|
-------------------------------------------------------------------|
-------------------------------------------------------------------|
-7---------9---------10---------12---------------------------------|
-7---------9---------10---------12---------------------------------|
-5-5555555-7-5555555--8-5555555-10-5555555-------------------------|
   .......   .......    .......    .......

2:37 - 2:42
---------------------|
---------------------|
---------------------| x 4
-7----9---10---------|
-7----7---10---------|
-5--0-7-0--8-0-0-----|

2:43 - 2:52
---------------------|
---------------------|
---------------------|
-7----3----4----5----| x 4
-7-x8-3-x8-4-x8-5-x8-|
-5----1----2----3----|

2:53 - 3:02
---------------------|
---------------------|
---------------------| x 8
-7----9---10---------|
-7----7---10---------|
-5--0-7-0--8-0-0-----|


3:03 - 3:21

"sensations, frustrations..."
----------------------|---------------------------------------------|
----------------------|---------------------------------------------|
----------------------|---------------------------------------------|
-3----5----2----3-----|--3----5----7--------------------------------|
-3-x8-5-x8-2-x8-3-x8--|--3-x8-5-x8-7-x16----------------------------|
-1----3----0----1-----|--1----3----5--------------------------------|

"no matter what its costed"
----------------------|---------------------------------------------|
----------------------|---------------------------------------------|
----------------------|---------------------------------------------|
-3----5----2----3-----|--3----5----7--------------------------------|
-3-x8-5-x8-2-x8-3-x8--|--3-x8-5-x8-7--------------------------------|
-1----3----0----1-----|--1----3----5--------------------------------|


3:21 - 3:42
-------------------------------------------------------------------|
-------------------------------------------------------------------|
-------------------------------------------------------------------|        x4
-7-9-10-9--3-9-10-9--4-9-10-9--5-9-10-12---------------------------|
-7-9-10-9--3-9-10-9--4-9-10-9--5-9-10-12---------------------------|
-5-7--8-7--1-7--8-7--2-7--8-7--3-7--8-10---------------------------|

3:42 - 3:45

"My heard of glass  -  is scratched
-------------------------------------------------------------------|
-------------------------------------------------------------------|
-------------------------------------------------------------------|
-3---------------5-------------------------------------------------|
-3----------x7---5-------------------------------------------------|
-1---------------3-------------------------------------------------|


3:45 - 3:55
---------------------|
---------------------|
---------------------| x 8
-7----9---10---------|
-7----7---10---------|
-5--0-7-0--8-0-0-----|


3:56 - 4:00
---------------------|
---------------------|
---------------------|
-7----9---10---------| x4
-7----7---10---------|
-5--0-7-0--8---------|


4:01 - 4:05
---------------------|
---------------------|
---------------------|
-7---7---9-----------| x4
-7---7---9-----------|
-5---5---7-----------|


4:06 - 4:10
---------------------|
---------------------|
---------------------|
-7---7---7-----------| x4
-7---7---7-----------|
-5---5---5-----------|

4:10 - 4:37
----------------------|
----------------------|
----------------------|
-3----5----2----3-----|
-3-x8-5-x8-2-x8-3-x8--| x5 (palm mute the first two, then dont for the rest.
-1----3----0----1-----|        listen to the song for pace/intensity changes)


4:38 - 4:40
-------------|
-------------|
-------------|
-3-----5-----|
-3-x8--5--x8-|
-1-----3-----|


4:41 - fin
----------------------|
----------------------|
----------------------|
-7--9--10--9----------| x8
-7--9--10--9----------|
-5--7---8--7----------|
            
Submit corrections

comments powered by Disqus
↑ Back to top | Local H Tabs for The One With Kid. Lyrics for acoustic guitar and electric guitar. 1 Tablatures and chords are parodies/interpretations of the original songs. You may use it for private study, scholarship, research or language learning purposes only