>
 >
Half Life

Half Life Guitar Tabs

Local H - Half Life chords, tabs, tablatures, lyrics

Guitar lessons | Add/correct | Request | Top 50 tabs Artists:  A B C D E F G H I J K L M N O P Q R S T U V W X Y Z 0-9

Half Life Guitar Tabs – Local H

CD, Sheet music, Poster

Do you like Half Life? Share with your friends now
Tabs

Intro pt. 1
------------------------------------------------------------------------------
---5/7-7-7-7-7-7-7-7----------------------------------------------------------
------------------------------------------------------------------------------
------------------------------------------------------------------------------
------------------------------------------------------------------------------
------------------------------------------------------------------------------
  Repeat 7x                                                                   

Intro pt.2
------------------------------------------------------------------------------
---5/7-7-7-7-5-7-5-7----------------------------------------------------------
------------------------------------------------------------------------------
------------------------------------------------------------------------------
------------------------------------------------------------------------------
------------------------------------------------------------------------------
                                                                              
Intro pt. 3
------------------------------------------------------------------------------
------------------------------------------------------------------------------
------------------------------------------------------------------------------
------------------------------------------------------------------------------
---5-7-7-7---5-7-7-7--5-7-5-7-9b----------------------------------------------
------------------------------------------------------------------------------
   Repeat  4x                                                                 

Verse pt. 1
------------------------------------------------------------------------------
---5/7-7-7-7-7-7-7-7-7-7-7-7-7-7----------------------------------------------
------------------------------------------------------------------------------
------------------------------------------------------------------------------
------------------------------------------------------------------------------
------------------------------------------------------------------------------
   Repeat 4x                                                                

Verse pt. 1.5
------------------------------------------------------------------------------
--5/7-7-7-7-7-7-7-7-7-------5/7-7-7-7-7-7-7-7-7-7-----------------------------
------------------------------------------------------------------------------
------------------------------------------------------------------------------
------------------------------------------------------------------------------
------------------------------------------------------------------------------
                                                                              
Verse pt.2
------------------------------------------------------------------------------
--5/7-7-7-7-7-7-7-7-7-7-7-7-7-------------------------------------------------
------------------------------------------------------------------------------
------------------------------------------------------------------------------
------------------------------------------------------------------------------
------------------------------------------------------------------------------
  Repeat 4x                                                                   

Chorus intro
------------------------------------------------------------------------------
------------------------------------------------------------------------------
------------------------------------------------------------------------------
--7--7--7--7--7--7-7-7--------------------------------------------------------
--7--7--7--7--7--7-7-7--------------------------------------------------------
--7--7--7--7--7--7-7-7--------------------------------------------------------
                                                                              
Chorus
------------------------------------------------------------------------------
------------------------------------------------------------------------------
------------------------------------------------------------------------------
------------------------------------------------------------------------------
--5-7-7-7--5-7-7-7--5-7-5-7-9b------------------------------------------------
------------------------------------------------------------------------------
  Repeat 3x                                                                   

Chorus outro
------------------------------------------------------------------------------
------------------------------------------------------------------------------
------------------------------------------------------------------------------
--7-7-7-7--5-5-5-5--3-3-3--0--------------------------------------------------
--7-7-7-7--5-5-5-5--3-3-3--0--------------------------------------------------
--7-7-7-7--5-5-5-5--3-3-3--0--------------------------------------------------
                                                                              
Bridge pt.1
------------------------------------------------------------------------------
------------------------------------------------------------------------------
------------------------------------------------------------------------------
--7--5--3-/5--7---------------------------------------------------------------
--7--5--3-/5--7---------------------------------------------------------------
--7--5--3-/5--7---------------------------------------------------------------
                                                                              
Bridge pt.2
------------------------------------------------------------------------------
--5/7-7-7-7-7-7-7-7---5/7-7-7-7-7-7-7-7-7-------------------------------------
------------------------------------------------------------------------------
------------------------------------------------------------------------------
------------------------------------------------------------------------------
------------------------------------------------------------------------------
  Repeat 2x                                                                   

Verse
------------------------------------------------------------------------------
--5/7-7-7-7-7-7-7-7-7-7-7-7-7-------------------------------------------------
------------------------------------------------------------------------------
------------------------------------------------------------------------------
------------------------------------------------------------------------------
------------------------------------------------------------------------------
  Repeat 4x                                                                   

Chorus intro
------------------------------------------------------------------------------
------------------------------------------------------------------------------
------------------------------------------------------------------------------
--7--7--7--7--7-7-7-----------------------------------------------------------
--7--7--7--7--7-7-7-----------------------------------------------------------
--7--7--7--7--7-7-7-----------------------------------------------------------
                                                                              
Chorus
------------------------------------------------------------------------------
------------------------------------------------------------------------------
------------------------------------------------------------------------------
------------------------------------------------------------------------------
--5-7-7-7--5-7-7-7--5-7-5-7--9b-----------------------------------------------
------------------------------------------------------------------------------
  Repeat 3x                                                                   

Chorus outro
------------------------------------------------------------------------------
------------------------------------------------------------------------------
------------------------------------------------------------------------------
--7-7-7-7--5-5-5-5--3-3-3-0---------------------------------------------------
--7-7-7-7--5-5-5-5--3-3-3-0---------------------------------------------------
--7-7-7-7--5-5-5-5--3-3-3-0---------------------------------------------------
                                                                              
Bridge
------------------------------------------------------------------------------
------------------------------------------------------------------------------
------------------------------------------------------------------------------
--7--5--3--/5--7--------------------------------------------------------------
--7--5--3--/5--7--------------------------------------------------------------
--7--5--3--/5--7--------------------------------------------------------------
                                                                              
Solo
------------------------------------------------------------------------------
--12/1-1/12-------------------------------------------------------------------
-------------12/1-1/12---------------------------------------------12/1-1/12--
------------------------12/1-1/12------------------------12/1-1/12------------
----------------------------------12/1-0h1p0---12/1-1/12----------------------
------------------------------------------------------------------------------
                                                                              
------------------------------------------------------------------------------
--12/2-------------12/9/10/5/7/1/15-------------------------------------------
----------2/12----------------------------------------------------------------
------------------------------------------------------------------------------
------------------------------------------------------------------------------
------------------------------------------------------------------------------
  On the 12/2 and the 2/12 here, keep pickin the string while you slide to get
that sweet trill-type sound you hear in the song. Also, if ur playing this
on an acustic, a pick slide right before this next part sounds nice, but I dont 
think they do that in the song.

Verse pt.3
------------------------------------------------------------------------------
------------------------------------------------------------------------------
------------------------------------------------------------------------------
--5-5-------------------------------------------------------------------------
--5-5-----5-7-5-7-9-----------------------------------------------------------
--5-5-------------------------------------------------------------------------
  Repeat 4x                                                                   

Verse outro
------------------------------------------------------------------------------
------------------------------------------------------------------------------
------------------------------------------------------------------------------
--7-7-7-7--5-5-5-5--3-3-3-0---------------------------------------------------
--7-7-7-7--5-5-5-5--3-3-3-0---------------------------------------------------
--7-7-7-7--5-5-5-5--3-3-3-0---------------------------------------------------

Chorus
------------------------------------------------------------------------------
------------------------------------------------------------------------------
------------------------------------------------------------------------------
------------------------------------------------------------------------------
--5-7-7-7--5-7-7-7--5-7-5-7--9b-----------------------------------------------
------------------------------------------------------------------------------
  Repeat 3x                                                                   

Chorus outro
------------------------------------------------------------------------------
------------------------------------------------------------------------------
------------------------------------------------------------------------------
--7-7-7-7--5-5-5-5--3-3-3-0---------------------------------------------------
--7-7-7-7--5-5-5-5--3-3-3-0---------------------------------------------------
--7-7-7-7--5-5-5-5--3-3-3-0---------------------------------------------------
                                                                              
Outro pt. 1
------------------------------------------------------------------------------
------------------------------------------------------------------------------
------------------------------------------------------------------------------
--5---5---5-------------------------------------------------------------------
--5---5---5-------------------------------------------------------------------
--5---5---5-------------------------------------------------------------------
                                                                              
Outro pt.2
------------------------------------------------------------------------------
------------------------------------------------------------------------------
------------------------------------------------------------------------------
--7-7-7-7--5-5-5-5--3-3-3-0-----9/1-------------------------------------------
--7-7-7-7--5-5-5-5--3-3-3-0-----9/1-------------------------------------------
--7-7-7-7--5-5-5-5--3-3-3-0-----9/1-------------------------------------------

There you go! I wanted a tab for this so bad and i couldnt find one so i made it 
up one day. I think it sounds good, and so does my girlfriend (Love ya Jesse!)
So enjoy if you want, and make any changes you want too, especially in the solo,
Even just a free slidin' solo sounds sweet! 

Intro pt. 1
------------------------------------------------------------------------------
---5/7-7-7-7-7-7-7-7----------------------------------------------------------
------------------------------------------------------------------------------
------------------------------------------------------------------------------
------------------------------------------------------------------------------
------------------------------------------------------------------------------
  Repeat 7x                                                                   

Intro pt.2
------------------------------------------------------------------------------
---5/7-7-7-7-5-7-5-7----------------------------------------------------------
------------------------------------------------------------------------------
------------------------------------------------------------------------------
------------------------------------------------------------------------------
------------------------------------------------------------------------------
                                                                              
Intro pt. 3
------------------------------------------------------------------------------
------------------------------------------------------------------------------
------------------------------------------------------------------------------
------------------------------------------------------------------------------
---5-7-7-7---5-7-7-7--5-7-5-7-9b----------------------------------------------
------------------------------------------------------------------------------
   Repeat  4x                                                                 

Verse pt. 1
------------------------------------------------------------------------------
---5/7-7-7-7-7-7-7-7-7-7-7-7-7-7----------------------------------------------
------------------------------------------------------------------------------
------------------------------------------------------------------------------
------------------------------------------------------------------------------
------------------------------------------------------------------------------
   Repeat 4x                                                                

Verse pt. 1.5
------------------------------------------------------------------------------
--5/7-7-7-7-7-7-7-7-7-------5/7-7-7-7-7-7-7-7-7-7-----------------------------
------------------------------------------------------------------------------
------------------------------------------------------------------------------
------------------------------------------------------------------------------
------------------------------------------------------------------------------
                                                                              
Verse pt.2
------------------------------------------------------------------------------
--5/7-7-7-7-7-7-7-7-7-7-7-7-7-------------------------------------------------
------------------------------------------------------------------------------
------------------------------------------------------------------------------
------------------------------------------------------------------------------
------------------------------------------------------------------------------
  Repeat 4x                                                                   

Chorus intro
------------------------------------------------------------------------------
------------------------------------------------------------------------------
------------------------------------------------------------------------------
--7--7--7--7--7--7-7-7--------------------------------------------------------
--7--7--7--7--7--7-7-7--------------------------------------------------------
--7--7--7--7--7--7-7-7--------------------------------------------------------
                                                                              
Chorus
------------------------------------------------------------------------------
------------------------------------------------------------------------------
------------------------------------------------------------------------------
------------------------------------------------------------------------------
--5-7-7-7--5-7-7-7--5-7-5-7-9b------------------------------------------------
------------------------------------------------------------------------------
  Repeat 3x                                                                   

Chorus outro
------------------------------------------------------------------------------
------------------------------------------------------------------------------
------------------------------------------------------------------------------
--7-7-7-7--5-5-5-5--3-3-3--0--------------------------------------------------
--7-7-7-7--5-5-5-5--3-3-3--0--------------------------------------------------
--7-7-7-7--5-5-5-5--3-3-3--0--------------------------------------------------
                                                                              
Bridge pt.1
------------------------------------------------------------------------------
------------------------------------------------------------------------------
------------------------------------------------------------------------------
--7--5--3-/5--7---------------------------------------------------------------
--7--5--3-/5--7---------------------------------------------------------------
--7--5--3-/5--7---------------------------------------------------------------
                                                                              
Bridge pt.2
------------------------------------------------------------------------------
--5/7-7-7-7-7-7-7-7---5/7-7-7-7-7-7-7-7-7-------------------------------------
------------------------------------------------------------------------------
------------------------------------------------------------------------------
------------------------------------------------------------------------------
------------------------------------------------------------------------------
  Repeat 2x                                                                   

Verse
------------------------------------------------------------------------------
--5/7-7-7-7-7-7-7-7-7-7-7-7-7-------------------------------------------------
------------------------------------------------------------------------------
------------------------------------------------------------------------------
------------------------------------------------------------------------------
------------------------------------------------------------------------------
  Repeat 4x                                                                   

Chorus intro
------------------------------------------------------------------------------
------------------------------------------------------------------------------
------------------------------------------------------------------------------
--7--7--7--7--7-7-7-----------------------------------------------------------
--7--7--7--7--7-7-7-----------------------------------------------------------
--7--7--7--7--7-7-7-----------------------------------------------------------
                                                                              
Chorus
------------------------------------------------------------------------------
------------------------------------------------------------------------------
------------------------------------------------------------------------------
------------------------------------------------------------------------------
--5-7-7-7--5-7-7-7--5-7-5-7--9b-----------------------------------------------
------------------------------------------------------------------------------
  Repeat 3x                                                                   

Chorus outro
------------------------------------------------------------------------------
------------------------------------------------------------------------------
------------------------------------------------------------------------------
--7-7-7-7--5-5-5-5--3-3-3-0---------------------------------------------------
--7-7-7-7--5-5-5-5--3-3-3-0---------------------------------------------------
--7-7-7-7--5-5-5-5--3-3-3-0---------------------------------------------------
                                                                              
Bridge
------------------------------------------------------------------------------
------------------------------------------------------------------------------
------------------------------------------------------------------------------
--7--5--3--/5--7--------------------------------------------------------------
--7--5--3--/5--7--------------------------------------------------------------
--7--5--3--/5--7--------------------------------------------------------------
                                                                              
Solo
------------------------------------------------------------------------------
--12/1-1/12-------------------------------------------------------------------
-------------12/1-1/12---------------------------------------------12/1-1/12--
------------------------12/1-1/12------------------------12/1-1/12------------
----------------------------------12/1-0h1p0---12/1-1/12----------------------
------------------------------------------------------------------------------
                                                                              
------------------------------------------------------------------------------
--12/2-------------12/9/10/5/7/1/15-------------------------------------------
----------2/12----------------------------------------------------------------
------------------------------------------------------------------------------
------------------------------------------------------------------------------
------------------------------------------------------------------------------
  On the 12/2 and the 2/12 here, keep pickin the string while you slide to get
that sweet trill-type sound you hear in the song. Also, if ur playing this
on an acustic, a pick slide right before this next part sounds nice, but I dont 
think they do that in the song.

Verse pt.3
------------------------------------------------------------------------------
------------------------------------------------------------------------------
------------------------------------------------------------------------------
--5-5-------------------------------------------------------------------------
--5-5-----5-7-5-7-9-----------------------------------------------------------
--5-5-------------------------------------------------------------------------
  Repeat 4x                                                                   

Verse outro
------------------------------------------------------------------------------
------------------------------------------------------------------------------
------------------------------------------------------------------------------
--7-7-7-7--5-5-5-5--3-3-3-0---------------------------------------------------
--7-7-7-7--5-5-5-5--3-3-3-0---------------------------------------------------
--7-7-7-7--5-5-5-5--3-3-3-0---------------------------------------------------

Chorus
------------------------------------------------------------------------------
------------------------------------------------------------------------------
------------------------------------------------------------------------------
------------------------------------------------------------------------------
--5-7-7-7--5-7-7-7--5-7-5-7--9b-----------------------------------------------
------------------------------------------------------------------------------
  Repeat 3x                                                                   

Chorus outro
------------------------------------------------------------------------------
------------------------------------------------------------------------------
------------------------------------------------------------------------------
--7-7-7-7--5-5-5-5--3-3-3-0---------------------------------------------------
--7-7-7-7--5-5-5-5--3-3-3-0---------------------------------------------------
--7-7-7-7--5-5-5-5--3-3-3-0---------------------------------------------------
                                                                              
Outro pt. 1
------------------------------------------------------------------------------
------------------------------------------------------------------------------
------------------------------------------------------------------------------
--5---5---5-------------------------------------------------------------------
--5---5---5-------------------------------------------------------------------
--5---5---5-------------------------------------------------------------------
                                                                              
Outro pt.2
------------------------------------------------------------------------------
------------------------------------------------------------------------------
------------------------------------------------------------------------------
--7-7-7-7--5-5-5-5--3-3-3-0-----9/1-------------------------------------------
--7-7-7-7--5-5-5-5--3-3-3-0-----9/1-------------------------------------------
--7-7-7-7--5-5-5-5--3-3-3-0-----9/1-------------------------------------------

There you go! I wanted a tab for this so bad and i couldnt find one so i made it 
up one day. I think it sounds good, and so does my girlfriend (Love ya Jesse!)
So enjoy if you want, and make any changes you want too, especially in the solo,
Even just a free slidin' solo sounds sweet! 
								Lata!





Comments


Popular Local H tabs & chords
Bound For The Floor Bass Tabs
Bound For The Floor 4 Bass Tabs
California Song Bass Tabs
Cool Magnet Bass Tabs
Feed Bass Tabs
Hands On The Bible Chords
Born To Be Down Tabs
Cooler Heads 1 Tabs
Everyone Alive 1 Tabs
Manifest Destiny Tabs


Song lyrics



↑ Back to top | Tablatures and chords are parodies/interpretations of the original songs. You may use it for private study, scholarship, research or language learning purposes only
© 2014 AZChords.com Contact us | Privacy policy | DMCA | Add/correct tabs | Request tabs | Top 50 tabs