» » »

Fritzes Corner Tabs (ver.2)

Artists:  A B C D E F G H I J K L M N O P Q R S T U V W X Y Z # 

Fritzes Corner Tabs (ver.2)

Local H
Rating:
0/5 (0 votes)

Hard to play? Try these video lessons and learn fast.
                First off this song is REAL easy to play.  Really it's just power
chords.  It was kinda fun tabbing this because I figured it out and

Intro: (head banging part)


 E  ----------------------------------------
 B  ----------------------------------------
 G  ----------------------------------------
 D  --11-11---------------------------------
 A  --11-11---------------------------------   repeat until the verse....
 E  --9--9----------------------------------

Verse

 E  -----------------------------------------------------------------
 B  -----------------------------------------------------------------
 G  ------------14-14-14-14------------------------------------------
 D  --11-11-11--14-14-14-14--14-14-14-14--12-12-12-12----------------
 A  --11-11-11--12-12-12-12--14-14-14-14--12-12-12-12----------------   
 E  --9--9--9----------------12-12-12-12--10-10-10-10----------------


Fill 1 (played before the first verse)

       ~~~~
 E  --------------------------------
 B  --------------------------------
 G  --------------------------------
 D  --------------------------------
 A  --/14\--------------------------
 E  --------------------------------

Fill 2 (played the third time before the first verse)

        Pick Slides
 E  ----------------------------------------------------------------
 B  ----------------------------------------------------------------
 G  ----------------------------------------------------------------
 D  --/XXXXXXXXXXXXXX-----------------------------------------------
 A  --/XXXXXXXXXXXXXX-----------------------------------------------
 E  --/XXXXXXXXXXXXXX-----------------------------------------------

The solo part...  Well its self explanatory. It's just two guitars
playing  as many strings as they can and moving there your fingers
really fast. 


Daniel Orosz

I was here, now I'm gone....  8-)
            
Hard to play? Try these video lessons and learn fast. | Correct




comments powered by Disqus
↑ Back to top | Tablatures and chords are parodies/interpretations of the original songs. You may use it for private study, scholarship, research or language learning purposes only