>
 >
California Songs 1

California Songs 1 Guitar Tabs

Local H - California Songs 1 chords, tabs, tablatures, lyrics

Guitar lessons | Add/correct | Request | Top 50 tabs Artists:  A B C D E F G H I J K L M N O P Q R S T U V W X Y Z 0-9

California Songs 1 Guitar Tabs – Local H

CD, Sheet music, Poster

Do you like California Songs 1? Share with your friends now
Bass TabsBass Tabs v2TabsTabs v2
Tuning: Drop D
___________________________________________________________
_Intro\Verse_______________________________________________
|=========|
|Bass Line|
|=========|

|---------------------------------|
|---------------------------------|
|---------------------------------|
|---------------------------------|
|---------2-2-1-1-2-2-1-1---------|
|-1-1-4-4-----------------4-4-3-3-|

|======|
|Guitar|
|======|

|-----------| Do this part a bunch of times
|-----------| Sometimes Scott skips this, so get off your
|-8-8\------| lazy ass and go listen to the song :D
|-8-8\------|
|-6-6\------|
|-----------|

___________________________________________________________
_Chorus____________________________________________________
|------------------------------|
|------------------------------|
|-------4-333-4-333------------|
|-1-444-4-333-4-333-4444-3333--|
|-1-444-2-111-2-111-4444-3333--|
|-1-444-------------4444-3333--|


___________________________________________________________
_Bridge____________________________________________________
|-------------------|-----------------------------------|
|-------------------|-----------------------------------|
|-8888888888888888--|------------4444---------6666-4444-|x3
|-8888888888888888--|-11-4444-11-4444-11-4444-6666-4444-|
|-6666666666666666--|-11-4444-11-2222-11-4444-4444-2222-|
|-------------------|-11-4444-11------11-4444-----------|

Then Play this
|----------------------------------------------------|
|----------------------------------------------------|
|------------4444---------6666666666666666----8\-----|
|-11-4444-11-4444-11-4444-6666666666666666----8\-----|
|-11-4444-11-2222-11-4444-4444444444444444----6\-----|
|-11-4444-11------11-4444----------------------------|

___________________________________________________________
_Outro_____________________________________________________
|---------------------|
|---------------------|
|-----------4444-3333-|  x4
|-1111-4444-4444-3333-|
|-1111-4444-2222-1111-|
|-1111-4444-----------|

|===|*ORDER*|===|
INTRO/VERSE-(0:00-1:01)
bass-x8
guitar- the 1st 3 times play it normal. Don't play on the 4th.  Play it normal again 
the 7th. Play it only once. Play it normal until the chorus.

CHORUS-(1:01-1:17)---x2

VERSE-(1:18-1:55)
bass-x3
guitar-u figure it out

CHORUS-(1:56-2:25)---x4

BRIDGE-(2:25-3:02)---look up there^

VERSE-(3:02-3:15)
bass-x2
guitar-play the second time over the bass part

CHORUS-(3:15-3:45)---x4

OUTRO-(3:45-4:00)---x4

Bass Part until the end

Rock on \m/





Comments


Popular Local H tabs & chords
California Songs 1 Bass Tabs
Feed Bass Tabs
Feed 1 Bass Tabs
Back In The Day Tabs
Bound For The Floor Tabs
Copesetic Tabs
Fritz's Corner Tabs
Half-Life Tabs
High-Flying Mf Tabs
Fine And Good Ukulele


Song lyrics



↑ Back to top | Tablatures and chords are parodies/interpretations of the original songs. You may use it for private study, scholarship, research or language learning purposes only
© 2014 AZChords.com Contact us | Privacy policy | DMCA | Add/correct tabs | Request tabs | Top 50 tabs