» » »

Tex Bass tabs (ver.1)

Artists:  A B C D E F G H I J K L M N O P Q R S T U V W X Y Z # 

Tex Bass tabs (ver.1)

Litfiba
Rating:
0/5 (0 votes)

Hard to play? Try these video lessons and learn fast.
                |---------------------------------|
|-55-555-5-55-353--------3-33-3-3-|
|-----------------55-555-------5--| X6
|---------------------------------|

|---------------------------------------------------------------------------------|
|---------------------------------------------------------------------------------|
|---------------------------------------------------------------------------------| X2
|-3-3-3333-33-3-3--3-3-3333-33-33--1-1-1111-11-1-1--55-66-666-6-66-8686-----------|

|------------------------------------------------------|
|------------------------------------------------------|
|------------------------------------------------------|
|-3-3-3333-33-3-3--3-3-3333-33-33--1-1-1111-11-1-1--3--|

|---------------------------------|
|-55-555-5-55-353--------3-33-3-3-|
|-----------------55-555-------5--| X6
|---------------------------------|

|---------------------------------------------------------------------------------|
|---------------------------------------------------------------------------------|
|---------------------------------------------------------------------------------| 
|-3-3-3333-33-3-3--3-3-3333-33-33--1-1-1111-11-1-1--55-66-666-6-66-8686-----------|

|------------------------------------------------------|
|------------------------------------------------------|
|------------------------------------------------------|
|-3-3-3333-33-3-3--3-3-3333-33-33--1-1-1111-11-1-1--55-|

|--------------------------------------|
|--------------------------------------|
|--6-6-666-3-3-333-5-5-555-5-55-55-5-5-| X4
|--------------------------------------|

|---------------------------------|
|-55-555-5-55-353--------3-33-3-3-|
|-----------------55-555-------5--| X2
|---------------------------------|

|---------------------------------------------------------------------------------|
|---------------------------------------------------------------------------------|
|---------------------------------------------------------------------------------| 
|-3-3-3333-33-3-3--3-3-3333-33-33--1-1-1111-11-1-1--55-66-666-6-66-8686-----------|

|------------------------------------------------------|
|------------------------------------------------------|
|------------------------------------------------------|
|-3-3-3333-33-3-3--3-3-3333-33-33--1-1-1111-11-1-1--55-|

|--------------------------------------|
|--------------------------------------|
|--6-6-666-3-3-333-5-5-555-5-55-55-5-5-| X4
|--------------------------------------|

|------------------------------------------|
|------------------------------------------|
|--6-6-666-3-3-333-3-6--3-6--3-6--3-6--3--6| 
|------------------------------------------|

|---------------------------------|
|-55-555-5-55-353--------3-33-3-3-|
|-----------------55-555-------5--| RALLENTANDO
|---------------------------------|
            
Hard to play? Try these video lessons and learn fast. | Correct




comments powered by Disqus
↑ Back to top | Tablatures and chords are parodies/interpretations of the original songs. You may use it for private study, scholarship, research or language learning purposes only