» » »

Litfiba, Ballata Bass tabs (ver.1)

Artists:  A B C D E F G H I J K L M N O P Q R S T U V W X Y Z # 

Ballata Bass tabs (ver.1)

Litfiba Tabs
 Rating:
4/5 (5 votes)
Ballata lessons Tabs too difficult? Try these video lessons and learn fast
                This is my favorite Litfiba's song...



LITFIBA

-ballata- 


 Cm                          Gm       F9

Main riff
G---------------------------------------------------|
D---------------------------------------------------|
A-3---6-----3---6--3--5h6p5--------3-----6-----6--5-|
E--------6-------------------3--6-----1-----6-------|


variation 1 to main riff
G-----------------------------------------------------|
D----------------------------------------3/5--3-------|
A-3---6-----3---6--3--5h6p5--------3-------------6--5-|
E--------6-------------------3--6-----1---------------|


variation 2 to main riff
G---------------------------------------------------|
D----------------------------------------3/5--3-----|
A-3---6-----3---6--3--5h6p5--------3----------------|
E--------6-------------------3--6-----1-------------|


Solo
G-----------------------12--10---------------------------------------------
D--------5--13--12--10----------13--12--10--8--10--8--6h8--6h8--7--5-------
A-3--6----------------------------------------------------------------8--10
E--------------------------------------------------------------------------

G-----------------------------------------------
D--------------13---------13----10--12--13--10--
A-12--13--12------12--13-----13-----------------
E-----------------------------------------------

G-------------12---------------------------------14------14--15--14--15--17-
D-12--13--15------15--13--12------12--13--13/15------15---------------------
A-----------------------------15--------------------------------------------
E---------------------------------------------------------------------------

G----------14---------------------------------------------|
D-17--15------13------------------------------------------|
A------------------3--6--3--5h6p5--------3-----6-----6--5-|
E----------------------------------3--6-----1-----6-------|

main riff

variation 3
G----------------------------------------------------------|
D-------------------------------5-----------3--------------|
A-3---6-----3---6--3--5h6p5-----------------------6--5-----|
E--------6-------------------3-----6--5--1-----6-----------|


pre-end
G--------------------------------------------------------------------------|
D--------------------------------------------------------------------------|
A-3---6-----3---6--3--5h6p5--------3------8--7-----6--5-----8--7-----8--7--|
E--------6-------------------3--6-----5---------1--------5--------1--------|

G----------------------------------------------------------------------|
D-----------12--13--15--13--12--13--12--13--12------15/17--15--13--12--|
A---15--15--------------------------------------15---------------------|
E----------------------------------------------------------------------|

main riff



Enjoy it!!!!!!!!
            
Submit corrections

comments powered by Disqus
↑ Back to top | Litfiba Bass for Ballata. Lyrics for acoustic guitar and electric guitar. Tablatures and chords are parodies/interpretations of the original songs. You may use it for private study, scholarship, research or language learning purposes only