» » »

Men In Suicide Bass tabs (ver.1)

Artists:  A B C D E F G H I J K L M N O P Q R S T U V W X Y Z # 

Men In Suicide Bass tabs (ver.1)

Litfiba
Rating:
0/5 (0 votes)

Hard to play? Try these video lessons and learn fast.
                LITFIBA
MEN IN SUICIDE (GUERRA, 1982)

Bassist:Gianni Maroccolo

Verse
E-----------------------------------------|
A------------------------------6(6)-------|   (LET RING THE NOTE)*
D-------0------0------0-----0-------------|
G---------5------5------5-----------------|
* There are some variations but basically is this.

Chorus
E ---------------------------------------------------------------  ...
A -5---------5-----------5-----------------5---------5-----------  ...
D ---7--5-7----7--5-7------7-5-----7---7-----7--5-7----7--5-7----  ...
G -----------------------------7-5---5---------------------------  ...

GREAT SONG FOR A GREAT BAND
LITFIBA TORNATE INSIEME!!!!!!     JAH WOBBLE IS GOD
            
Hard to play? Try these video lessons and learn fast. | Correct




comments powered by Disqus
↑ Back to top | Tablatures and chords are parodies/interpretations of the original songs. You may use it for private study, scholarship, research or language learning purposes only