» » »

Litfiba, Il Mio Corpo Che Cambia Tabs (ver.1)

Artists:  A B C D E F G H I J K L M N O P Q R S T U V W X Y Z # 

Il Mio Corpo Che Cambia Tabs (ver.1)

Litfiba Tabs
 Rating:
4/5 (5 votes)
Il Mio Corpo Che Cambia lessons Tabs too difficult? Try these video lessons and learn fast
1
                Litfiba – Il mio corpo che cambia


Intro: 
    Am	    	  C	      G		D 
e|--------------------------------------------------------------------------|
B|--------------------------------------------------------------------------|
G|--------------------------------------------------------------------------|
D|-----------------------5--5-5--7--5--7------------------------------------|
A|---------3--3--3--7--7-------------------5--------------------------------|
E|---5--5-------------------------------------------------------------------|

    Am	    	  C	      G		D 
e|--------------------------------------------------------------------------|
B|--------------------------------------------------------------------------|
G|--------------------------------------------------------------------------|
D|-----------------------5--5-5--7--5--7--9--7--5--4------------------------|
A|---------3--3--3--7--7----------------------------------------------------|
E|---5--5-------------------------------------------------------------------|


 Em     C       G         D
Cos'è cos'è questa sensazione
Em     C       G         D
è come un treno che passa dentro senza stazione
 Em     C       G         D
Dov'è dov'è il capostazione
 Em     C       G         D
sto viaggiando senza biglietto e non ho direzione

   Am	    	  C	      G		D 
e|--------------------------------------------------------------------------|
B|--------------------------------------------------------------------------|
G|--------------------------------------------------------------------------|
D|-----------------------5--5-5--7--5--7------------------------------------|
A|---------3--3--3--7--7-------------------5--------------------------------|
E|---5--5-------------------------------------------------------------------|


 Em     C       G         D
è lei è lei che prende la mia mano
 Em     C                    G         D
e mi accompagna in questo lungo viaggio andiamo lontano
 Em     C       G         D
ecco cos'è tutto il mio stupore
 Em     C                       G         D
non è facile guardare in faccia la trasformazione

 G                         D
E' il mio corpo che cambia
                  Em     C       G         D
nella forma e nel colore è in trasformazione
G                         D
E' una strana sensazione in un bagno di sudore
Em     C       G         D
E' il mio corpo che cambia
Em     C       G         D
che cambia e cambia
Em     C       G         D
che cambia e cambia


    Am	      C	      		G	      D 
e|--------------------------------------------------------------------------|
B|--------------------------------------------------------------------------|
G|--------------------------------------------------------------------------|
D|------5--7--9--7--5--4--2--------5--7--9--10--9--7--9---------------------|
A|---7--------------------------7-------------------------------------------|
E|-------------------------------------------------------------------------|



 Em     C       G         D
Cos'è cos'è questa sensazione
 Em     C                       G         D
è come un treno che mi passa dentro senza stazione
 Em     C       G         D
dimmi qual è qual è la mia direzione
 Em     C                     G         D
sto viaggiando senza biglietto nè limitazioni

    Am	    	  C	      G		D 
e|--------------------------------------------------------------------------|
B|--------------------------------------------------------------------------|
G|--------------------------------------------------------------------------|
D|-----------------------5--5-5--7--5--7------------------------------------|
A|---------3--3-3--7--7-------------------5---------------------------------|
E|---5--5-------------------------------------------------------------------|


 G                         D
E' il mio corpo che cambia
                  Em     C       G         D
nella forma e nel colore è in trasformazione
 G                         D
E' una strana sensazione in un bagno di sudore
 Em     C       G         D
E' il mio corpo che cambia
 Em     C       G         D
che cambia che cambia
 Em     C       G         D
che cambia e cambia

    Am	      C	      		G	      D 
e|--------------------------------------------------------------------------|
B|--------------------------------------------------------------------------|
G|--------------------------------------------------------------------------|
D|------5--7--9--7--5--4--2--------5--7--9--10--9--7--9---------------------|
A|---7--------------------------7-------------------------------------------|
E|-------------------------------------------------------------------------|

    Am	    	  C	      G		D 
e|--------------------------------------------------------------------------|
B|--------------------------------------------------------------------------|
G|--------------------------------------------------------------------------|
D|-----------------------5--5-5--7--5--7------------------------------------|
A|---------3--3-3--7--7-------------------5---------------------------------|
E|---5--5-------------------------------------------------------------------|

    Am	    	  C	      G		D 
e|--------------------------------------------------------------------------|
B|--------------------------------------------------------------------------|
G|--------------------------------------------------------------------------|
D|-----------------------5--5-5--7--5--7--9--7--5--4------------------------|
A|---------3-3--3--7--7-----------------------------------------------------|
E|---5--5-------------------------------------------------------------------|
            
Submit corrections

comments powered by Disqus
↑ Back to top | Litfiba Tabs for Il Mio Corpo Che Cambia. Lyrics for acoustic guitar and electric guitar. 1 Tablatures and chords are parodies/interpretations of the original songs. You may use it for private study, scholarship, research or language learning purposes only