array
(
    
'fatamorgana' => 'fatamorgana'
    'litfiba' 
=> 'litfiba'
)
Fata Morgana Tabs (ver. 1) by Litfiba @ AZ CHORDS.COM
» » »

Fata Morgana Tabs (ver.1)

Artists:  A B C D E F G H I J K L M N O P Q R S T U V W X Y Z # 

Fata Morgana Tabs (ver.1)

Litfiba
Rating:
0/5 (0 votes)

Hard to play? Try these video lessons and learn fast.
                Please mail me if you can find mistakes!

-----------------------------------------

Intro:
e-||-------------------------------------------------------------------------------------
B-||-------------------------------------------------------------------------------------
G-||------2-------2-------2-------2-------2-------2-------2-------2-------2-------2------
D-||----2-------2-------0-------0-------2-------2-------0-------0-------2-------2-------0
A-||--0-----0-3-----3-2-----2-1-----1-0-----0-3-----3-2-----2-1-----1-0-----0-3-----3-2--
E-||-------------------------------------------------------------------------------------
                                  Oh………………………………………vedi tutto attraverso 
	



e------------------------------------------------------------------------------
B------------------------------------------------------------------------------
G--2-------2-------2-------2-------2-------2-------2-------2-------2-------2---
D--------0-------2-------2-------0-------0-------2-------2-------0-------0-----
A----2-1-----1-0-----0-3-----3-2-----2-1-----1-0-----0-3-----3-2-----2-1-----1-
E------------------------------------------------------------------------------
        Oh………………………………………sabbia rossa e deserto



Am-Em   F      G    Am
   Ahaha…    Iehehe…
   Em   F      G    Am
   Ahaha…    Iehehe…
   Em   F      G    Am
   Ahaha…    Iehehe…
   Em   F      G    
   Ahaha…    Iehehe…


e----7-10-8-7-7-------------7-10-8-7-7--------------
B—10------------10-8---8-10------------10-8---8-10--
G--------------------9----------------------9-------
D---------------------------------------------------
A---------------------------------------------------
E---------------------------------------------------


    Am        G                    Am  
Ho sete, ho sete di te che non sei qui,
  G                   Am
stella caduta dagli occhi
                   G
G-----------------------------------------2-------2-------2-------2-----
D---------------------------------------2-------2-------0-------0-------
A-------------------------------------0-----0-3-----3-2-----2-1-----1-0-
                 e voli sul mio deserto...


    Am        G                   Am  
Ho sete, le nuvole mi cadono dentro
G                               Am
cerchio che ha perso il suo centro

  G
G-------------------------------2-------2-------2-------2---
D-----------------------------2-------2-------0-------0-----
A---------------------------0-----0-3-----3-2-----2-1-----1-
perché ha smarrito ogni senso…


G-----2-------2-------2-------2-------2-------2-------2-------2---
D---2-------2-------0-------0-------2-------2-------0-------0-----
A-0-----0-3-----3-2-----2-1-----1-0-----0-3-----3-2-----2-1-----1-
 Oh………………………………………sabbia rossa e deserto…



Am-Em   F      G    Am
   Ahaha…    Iehehe…
   Em   F      G    Am
   Ahaha…    Iehehe…
   Em   F      G    Am
   Ahaha…    Iehehe…
   Em   F      G    
   Ahaha…    Iehehe…

  


e----7-10-8-7-7-------------7-10-8-7-7--------------
B—10------------10-8---8-10------------10-8---8-10--
G--------------------9----------------------9-------
D---------------------------------------------------
A---------------------------------------------------
E---------------------------------------------------

Note: with ditorsion

Am      Em     F          G           Am       Em   F  G 
Lunga scala d’aria che sale dal deserto
Am     Em      F             G                  Am     Em  F  G
Non c’e confine con l’occhio dentro e l’occhio fuori

Morgana…


e----7-10-8-7-7-------------7-10-8-7-7--------------
B—10------------10-8---8-10------------10-8---8-10--
G--------------------9----------------------9-------
D---------------------------------------------------
A---------------------------------------------------
E---------------------------------------------------



Am      Em      F        G           Am       Em   F  G
Lenta processione all’alba nel deserto
Am   Em       F             G             Am       Em   F  G
Fata Morgana ha già cambiato ogni profilo
   Am           Em                F        G          Am       Em   F  G
Aspetto a parlare prima che l’illusione si sia mossa… (mossa)
   Am            Em     F             G         Am   Em     F  G
E scopro il confine che dall’infinito vola dentro di me

Morgana…







e----7-10-8-7-7-------------7-10-8-7-7--------------
B—10------------10-8---8-10------------10-8---8-10--
G--------------------9----------------------9-------    X2
D---------------------------------------------------
A---------------------------------------------------
E---------------------------------------------------



  Ahaha…    Iehehe…

  Ahaha…    Iehehe…

  Ahaha…    Iehehe…

  Ahaha…    Iehehe…


    Am         G                Am
Ho sete, significa che sono vivo
      G                           Am
Che importa se l’ultimo o il primo?…

    G
G-------------------------------2-------2-------2-------2---
D-----------------------------2-------2-------0-------0-----
A---------------------------0-----0-3-----3-2-----2-1-----1-
Il cuore vuol battere ancora



G-----2-------2-------2-------2-------2-------2-------2-------2---
D---2-------2-------0-------0-------2-------2-------0-------0-----
A-0-----0-3-----3-2-----2-1-----1-0-----0-3-----3-2-----2-1-----1-
 Oh………………………………………sabbia rossa e deserto…               La sento negli 


G-----2-------2-------2-------2---
D---2-------2-------0-------0-----
A-0-----0-3-----3-2-----2-1-----1-
 occhi..                Infondo ai miei 


G-----2-------2-------2-------2---
D---2-------2-------0-------0----- Am    G                 Am       G
A-0-----0-3-----3-2-----2-1-----1-
 occhi...               Salire dal mare...   Passando dal cuore



(Am  Em  F  G) x4    Am
            
Hard to play? Try these video lessons and learn fast. | Correct




comments powered by Disqus
↑ Back to top | Tablatures and chords are parodies/interpretations of the original songs. You may use it for private study, scholarship, research or language learning purposes only