» » »

Limp Bizkit, Take A Look Around12 Tabs (ver.1)

Artists:  A B C D E F G H I J K L M N O P Q R S T U V W X Y Z # 

Take A Look Around12 Tabs (ver.1)

Limp Bizkit Tabs
 Rating:
4/5 (4 votes)
Take A Look Around12 lessons Tabs too difficult? Try these video lessons and learn fast
                INTRO (x8)

e|----------------------------------------------------------------------|
B|----------------------------------------------------------------------|
G|----------------------------------------------------------------------|
D|----------------------------------------------------------------------|
A|---------------------------8-(10)-8-----------------------------------|
E|-10--10--10--10--10--10---------------10--10--10--10--10--10--8--9----|



Verse 

                                            
e|-16------16------16------16--------------------------------|
B|---18------18------18------18------------------------------|
G|-----17------16------15------18--18-18-18--17-17-17--------|
D|-----------------------------------------------------------|
A|-----------------------------------------------------------|
E|-----------------------------------------------------------|



Pre-Chorus:(x4)

(w/dist)
                                               
e|------------------------------------------------------------|
B|------------------------------------------------------------|
G|------------------------------------------------------------|
D|------------------------------------------------------------|
A|-------------------------1--3-------------------------------|
E|-1h3---1h3---1h3---1h3---------1h3---1h3---1h3---1h3---1--2-|





Chorus (x2)

(w/dist)
                                                
e|-------------------------------------------------------------|
B|-------------------------------------------------------------|
G|-------------------------3-5---------------------------------|
D|-------------------------1-3---------------------------------|
A|-3-5---3-5---3-5---3-5---------3-5---3-5---3-5---3-5---3--4--|
E|-1-3---1-3---1-3---1-3---------1-3---1-3---1-3---1-3---1--2--|



e|----------------------------------------------------------------------|
B|----------------------------------------------------------------------|
G|----------------------------3--5--------------------------------------|
D|----------------------------1--3--------------------------------------|
A|-x-5---x-5---x-5----x-5-3------------x-5---x-5---x-5----3-5-3---3--4--|
E|-x-3---x-3---x-3----x-3-1------------x-3---x-3---x-3----1-3-1---1--2--|
 



e|--------------------------|
B|--------------------------|
G|-------3--5---------------|
D|-------1--3---------------|
A|-5-5---------5-5---3-4----|
E|-3-3---------3-3---1-2----|
            
Submit corrections

comments powered by Disqus
↑ Back to top | Limp Bizkit Tabs for Take A Look Around12. Lyrics for acoustic guitar and electric guitar. Tablatures and chords are parodies/interpretations of the original songs. You may use it for private study, scholarship, research or language learning purposes only