» » »

Nobody Likes You Tabs (ver.1)

Artists:  A B C D E F G H I J K L M N O P Q R S T U V W X Y Z # 

Nobody Likes You Tabs (ver.1)

Limp Bizkit
Rating:
0/5 (0 votes)

Hard to play? Try these video lessons and learn fast.
                as performed on Significant Other
Mail me if there's any mistakes


x=3rd fret harmonic
/=slide up
~=tremolo
.=palm mute

drop D tuning


intro1
E|------------------------------------------|
B|------------------------------------------|
G|------------------------------------------|
D|------------------------------------------|
A|------------------------------------------|
d|-0-0--0-x-1-0-0--0-x-1-0-0--0-x-1-0-0-/12-|

intro2/outro
E|------------------------------------------|-------|
B|------------------------------------------|-------|
G|------------------------------------------|-------|
D|-0-0--0-x-1-0-0--0-x-1-0-0--0-x-1-0-0-/12-|---0---|
A|-0-0--0-x-1-0-0--0-x-1-0-0--0-x-1-0-0-/12-|---0---|
d|-0-0--0-x-1-0-0--0-x-1-0-0--0-x-1-0-0-/12-|---0---|


verse gtr.1
E|---------------|
B|---------------|
G|---------------|
D|---------------|
A|---------------|
d|-1-0--0--0-1-0-|
     . . .   .

verse gtr.2
E|-------------------|
B|-------------------|
G|-7~----9~-7~----5~-|
D|-------------------|
A|-------------------|
d|-------------------|


verse gtr.2 (when jon sings)
E|---------------------|
B|-12~---14~-12~---10~-|
G|---------------------|
D|---------------------|
A|---------------------|
d|---------------------|




chorus
E|------------------------------|
B|------------------------------|
G|------------------------------|
D|-0--x-x-0--x-x-6--5--0-0-3-2--|
A|-0--x-x-0--x-x-6--5--0-0-3-2--|
d|-0--x-x-0--x-x-6--5--0-0-3-2--|



interlude
E|---------------------------|
B|---------------------------|
G|---------------------------|
D|---------------------------|
A|-7-5-5-5-5-5-7-5-5-5-5-0-5-|
d|---------------------------|

interlude 2
E|---------------------------|
B|---------------------------|
G|---------------------------|
D|-9-7-7-7-7-7-9-7-7-7-7-7-0-|
A|-7-5-5-5-5-5-7-5-5-5-5-7-5-|
d|-----------------------7---|


wait a while for the killer bass line cause i've got to get my 
hands on a bass guitar.
            
Hard to play? Try these video lessons and learn fast. | Correct




comments powered by Disqus
↑ Back to top | Tablatures and chords are parodies/interpretations of the original songs. You may use it for private study, scholarship, research or language learning purposes only