» » »

Screwed It Up Bass tabs (ver.1)

Artists:  A B C D E F G H I J K L M N O P Q R S T U V W X Y Z # 

Screwed It Up Bass tabs (ver.1)

Limblifter
Rating:
0/5 (0 votes)

Hard to play? Try these video lessons and learn fast.
                Screwed It Up-Limblifter
Tuning: E A D G
X=don't play, don't let the note ring out

Riff 1a
G|-----------------|
D|-----------------|
A|-2X2---------0X0-|
E|-----3X3-0X0-----|
Play that a couple times and then:

Riff 1b            (or)
G|--------------| G|--------------|
D|--------------| D|-00000--------|
A|-55555--------| A|-------222222-|
E|-------777777-| E|--------------|


Verse-Riff 2 

(The verse is played on the E & A string instead of D & A string, 
but I find that it is easier to play on D & A)

G|-------------------------------------------------------------------------|
D|---2-----2-----2-----2-----2---------2---2-----2-----2-----2-----2-----2-|
A|-3---3-2---2-----2-3---3-2---2---2-0---3---3-2---2-----2-3---3-2---2-----|
E|-------------0-----------------0-------------------0-----------------0---|

Riff 3
G|--------------------|
D|--------------------|
A|-3333-2222----------|
E|-----------00000000-|

Riff 4a
G|------------------------|
D|------------------------|
A|-2222-------------------|
E|------333333333333-0000-|
Play that a couple times and then:

Riff 4b
G|-----------------|
D|-----------------|
A|-4444-00000------|
E|------------2222-|

Then repeat the whole thing except play Riff 1 before you play Riff 4.

During the guitar solo play:

Riff 5
G|-------------------|
D|-2-2---------------|
A|-----3-33-33-3-5-5-|
E|-------------------|

Then play Riff 1a, wrap up the song with:

G|-----------------|
D|-----------------|
A|-55555-----------|
E|-------7777777-8-|
            
Hard to play? Try these video lessons and learn fast. | Correct




comments powered by Disqus
↑ Back to top | Tablatures and chords are parodies/interpretations of the original songs. You may use it for private study, scholarship, research or language learning purposes only