» » »

Shoot Me Down Tabs (ver.2)

Artists:  A B C D E F G H I J K L M N O P Q R S T U V W X Y Z # 

Shoot Me Down Tabs (ver.2)

Lil Wayne
Rating:
0/5 (0 votes)

Hard to play? Try these video lessons and learn fast.
                
Tuning: Standard

Lead
e|-------------------------------------------------------------|
B|-------------------------------------------------------------|
G|-------------------------------------------------------------|  
D|-------------------------------------------------------------|
A|----------4-7-6-4---7-6-4---4--------4-----------------------|
E|--4---4-7---------------------7----7---2-4-------------------|

Rhythm
e|----------------------------------------------------------------------|
B|----------------------------------------------------------------------|
G|--------------6-------------4/6---------------------------------------|
D|--6-----2-----6-x8--9-------4/6--4/6----------------------------------|
A|--6-x8--2-x8--4-----9-x4----2/4--4/6----------------------------------|
E|--4-----0-----------7------------2/4----------------------------------|
                                             


| /  slide up
| \  slide down
| h  hammer-on
| p  pull-off
| ~  vibrato
| +  harmonic
| x  Mute note
            
Hard to play? Try these video lessons and learn fast. | Correct




comments powered by Disqus
↑ Back to top | Tablatures and chords are parodies/interpretations of the original songs. You may use it for private study, scholarship, research or language learning purposes only